Song name
# A B C D E F G H I J K L M N O P Q R S T U V W X Y Z

Ataris - Hey Kid tab

Title: Hey kid!
Artist: The Ataris
Tabbed by: nal1200

This song is by far one of The Ataris' greatest. Hope you enjoy.


Intro (x2)
    .   .    .   .    .   .    .   .    .   .    .   .    .   .
e|---------------------------------------------------------------------|
B|----------------------8---8------------------------------------------|
G|-----------7-7-7-7--9-9-9-9--5-5-5-5-----------7-7-7-7---------------|
D|--5-5-5-5--7-7-7-7--9-9-9-9--5-5-5-5--5-5-5-5--7-7-7-7--2-2-2-2------|
A|--5-5-5-5--5-5-5-5--7-7-7-7--3-3-3-3--5-5-5-5--5-5-5-5--2-2-2-2------|
E|--3-3-3-3-----------------------------3-3-3-3-----------0-0-0-0------|

    .   .
e|--------------|
B|--------------|
G|--5-5-4-4-----|
D|--5-5-4-4-----|
A|--3-3-2-2-----|
E|--------------|

Verse 1
                        . . .
e|---------------------------------|
B|---------------------------------|
G|--9999--7777---------------------|
D|--9999--7777--5\------5-5-5------|
A|--7777--5555--5\------5-5-5------|
E|--------------3\------3-3-3------|
    .   .    .   .    .   .    .   .    .   .    .   .    .   .
e|---------------------------------------------------------------------|
B|----------------------8---8------------------------------------------|
G|-----------7-7-7-7--9-9-9-9--5-5-5-5-----------7-7-7-7---------------|
D|--5-5-5-5--7-7-7-7--9-9-9-9--5-5-5-5--5-5-5-5--7-7-7-7--2-2-2-2------|
A|--5-5-5-5--5-5-5-5--7-7-7-7--3-3-3-3--5-5-5-5--5-5-5-5--2-2-2-2------|
E|--3-3-3-3-----------------------------3-3-3-3-----------0-0-0-0------|

    .   .
e|--------------|
B|--------------|
G|--5-5-4-4-----|
D|--5-5-4-4-----|
A|--3-3-2-2-----|
E|--------------|

    .   .    .   .    .   .    .   .    .   .    .   .    .   .
e|---------------------------------------------------------------------|
B|----------------------8---8------------------------------------------|
G|-----------7-7-7-7--9-9-9-9--5-5-5-5-----------7-7-7-7---------------|
D|--5-5-5-5--7-7-7-7--9-9-9-9--5-5-5-5--5-5-5-5--7-7-7-7--2-2-2-2------|
A|--5-5-5-5--5-5-5-5--7-7-7-7--3-3-3-3--5-5-5-5--5-5-5-5--2-2-2-2------|
E|--3-3-3-3-----------------------------3-3-3-3-----------0-0-0-0------|


e|--------------|
B|--------------|
G|--5555-4444---|
D|--5555-4444---|
A|--3333-2222---|
E|--------------|

Chorus (x2)

e|---------------------------------------------------------------------|
B|---------------------------------------------------------------------|
G|-----------7-7-7-7--9-9-9-9--5-5-5-5-----------7-7-7-7---------------|
D|--5-5-5-5--7-7-7-7--9-9-9-9--5-5-5-5--5-5-5-5--7-7-7-7--2-2-2-2------|
A|--5-5-5-5--5-5-5-5--7-7-7-7--3-3-3-3--5-5-5-5--5-5-5-5--2-2-2-2------|
E|--3-3-3-3-----------------------------3-3-3-3-----------0-0-0-0------|

e|--------------|
B|--------------|
G|--5-5-4-4-----|
D|--5-5-4-4-----|
A|--3-3-2-2-----|
E|--------------|

Verse 2
    .   .    .   .    .   .    .   .    .   .    .   .    .   .
e|---------------------------------------------------------------------|
B|----------------------8---8------------------------------------------|
G|-----------7-7-7-7--9-9-9-9--5-5-5-5-----------7-7-7-7---------------|
D|--5-5-5-5--7-7-7-7--9-9-9-9--5-5-5-5--5-5-5-5--7-7-7-7--2-2-2-2------|
A|--5-5-5-5--5-5-5-5--7-7-7-7--3-3-3-3--5-5-5-5--5-5-5-5--2-2-2-2------|
E|--3-3-3-3-----------------------------3-3-3-3-----------0-0-0-0------|

   1st end.         .   .  2nd end.
e|--------------|------------------|
B|--------------|------------------|
G|--5555--4444--|---5-5-4-4--------|
D|--5555--4444--|---5-5-4-4--------|
A|--3333--2222--|---3-3-2-2--------|
E|--------------|------------------|

Interlude
           |--3--|
e|--------------------------------|
B|--------------------------------|
G|--12-----11-12-7---5-----7------|
D|--12x8---11-12-7---5x12--7x4----|x3
A|--10-----9--10-5---3-----5------|
E|--------------------------------|

e|--------------------------------|
B|--------------------------------|
G|--12-----11-12-7---5-----4------|
D|--12x8---11-12-7---5x12--4x4----|
A|--10-----9--10-5---3-----2------|
E|--------------------------------|

(Play Chorus without words)

(play Verse 2 in place of third verse)

(play Chorus)

End with:
e|--------|
B|--------|
G|--5-----|
D|--5-----|(pickscrape)
A|--3-----|
E|--------|
Tap to rate this tab
 
# A B C D E F G H I J K L M N O P Q R S T U V W X Y Z