Song name
# A B C D E F G H I J K L M N O P Q R S T U V W X Y Z

Ataris - Fast Times At Dropout High tab

-----------------------------------------------------------------------------
FAST TIMES AT DROPOUT HIGH - Ataris
-----------------------------------------------------------------------------
Tabbed by: bandgeek10 (Aly Richards)
Email: Punkrawkgurl10@aol.com

Tuning: Standard
Album: End Is Forever

Key: x = Palm mute
     ~ = Let ring

Chords used:        F     E    Bb    C     D
              e-------------------------------|
              B-------------------------------|
              G-----------------3-----5-----7-|
              D-----3-----2-----3-----5-----7-|
              A-----3-----2-----1-----3-----5-|
              E-----1-----0-------------------|

INTRO: 1X, Strum

   e--------------------------------------------------------|
   B--------------------------------------------------------|
   G------------------7777777777777777-33333333-55555555----|
   D-3333333333333333-7777777777777777-33333333-55555555-3x-|
   A-3333333333333333-5555555555555555-11111111-33333333-3x-|
   E-1111111111111111------------------------------------1x-|

VERSE 1: 2X, Strum

   e----------------------------------------------------------------------|
   B----------------------------------------------------------------------|
   G------------------7777777777777777-33333333-55555555------------------|
   D-3333333333333333-7777777777777777-33333333-55555555-3333333333333333-|
   A-3333333333333333-5555555555555555-11111111-33333333-3333333333333333-|
   E-1111111111111111------------------------------------1111111111111111-|

"Alone at last..."

CHORUS 1: 1X Strum lightly

"I went by the place..."
  e-------------------------------------------------------------------------|
  B-------------------------------------------------------------------------|
  G----------33333333----------55555555-77777777-33333333-------------------|
  D-22222222-33333333-33333333-55555555-77777777-33333333-33333333-55555555-|
  A-22222222-11111111-33333333-33333333-55555555-11111111-33333333-55555555-l
  E-00000000----------11111111----------------------------11111111-33333333-|

  e------------------------------------------------------------------------|
  B------------------------------------------------------------------------|
  G-33333333-55555555-77777777-55555555-33333333-5~------------------------|
  D-33333333-55555555-77777777-55555555-33333333-5~-------3333333333333333-|
  A-11111111-33333333-55555555-33333333-11111111-3~-------3333333333333333-|
  E-------------------------------------------------------1111111111111111-|

VERSE 2: Same as verse 1

"The house was gone..."

CHORUS 2: Strum lightly, 1X

"Then there's the time..."

   e----------------------------------------------------------------------|
   B----------------------------------------------------------------------|
   G-7777777777777777------------------3333333333333333-------------------|
   D-7777777777777777-3333333333333333-3333333333333333-33333333-22222222-|
   A-5555555555555555-3333333333333333-1111111111111111-33333333-22222222-|
   E------------------1111111111111111------------------11111111-00000000-|

   e----------------------------------------------------------------------|
   B----------------------------------------------------------------------|
   G-7777777777777777------------------3333333333333333-------------------|
   D-7777777777777777-3333333333333333-3333333333333333-33333333-22222222-|
   A-5555555555555555-3333333333333333-1111111111111111-33333333-22222222-|
   E------------------1111111111111111------------------11111111-00000000-|

   e-------------------------------------------------------|
   B-------------------------------------------------------|
   G-33333333-55555555-77777777-55555555-33333333-5~-------|
   D-33333333-55555555-77777777-55555555-33333333-5~-------|
   A-11111111-33333333-55555555-33333333-11111111-3~-------|
   E-------------------------------------------------------|

BRIDGE: Strum, 2X, Played with the "Good Will Hunting" Clip

   e-------------------------------------------------------------------|
   B-------------------------------------------------------------------|
   G----------------------------------33333333333333333333333333333333-|
   D-33333333333333333333333333333333-33333333333333333333333333333333-|
   A-33333333333333333333333333333333-11111111111111111111111111111111-|
   E-11111111111111111111111111111111----------------------------------|

OUTRO: 4X, Strum, Played with the piano

   e-------------------------------------|
   B-------------------------------------|
   G-77777777-55555555-33333333----------|
   D-77777777-55555555-33333333-33333333-|
   A-55555555-33333333-11111111-33333333-|
   E----------------------------11111111-|

END ON:

           e----
           B----
           G----
           D-3~-
           A-3~-
           E-1~-
Tap to rate this tab
 
# A B C D E F G H I J K L M N O P Q R S T U V W X Y Z