Song name
# A B C D E F G H I J K L M N O P Q R S T U V W X Y Z

Ataris - I Kicked My Toe And It Fricking Hurts tab

THE ATARIS (album: WELCOME THE NIGHT)
I kicked my toe and it fricking hurts - INTRO

Hi guys, I'm Italian and this is my 1st tab! I hope it is correct :) This song is 
you should listen to it! Bye! If you have any problem send me an e-mail message 
thanks a lot!

(let ring)

e-----------------------------------------------4-4------------------|
b----------4---------------5-4---4-----------------------------------|
g------6-----6---6-----6-------6---6-6-6-5-5-5---------5-5-6-6-6-5-5-|
d----6---6-----6-----6---6-------------------------------------------|
a------------------6-------------------------------------------------|
e--4-----------------------------------------------------------------|

------------------------------------------------------------|
----------4---------------5-4---4-----------4---4-5-5-5-4---|
------6-----6---6-----6-------6---6-6-6-5-5---5-------------|
----6---6-----6-----6---6-----------------------------------|
------------------6-----------------------------------------|
--4---------------------------------------------------------|
Tap to rate this tab
# A B C D E F G H I J K L M N O P Q R S T U V W X Y Z