Song name
# A B C D E F G H I J K L M N O P Q R S T U V W X Y Z

Ataris - Iou One Galaxy tab

Tabbed By Kdog215


Intro:  Guitar 1 (2x) 
e|---------------------------------------------------------------------------| 
B|---------------------------------------------------------------------------| 
G|7-7-7-7-7-3-3-3-3-3-----------5-5-5-5-5------------------------------------| 
D|7-7-7-7-7-3-3-3-3-3-3-3-3-3-3-5-5-5-5-5------------------------------------| 
A|5-5-5-5-5-1-1-1-1-1-3-3-3-3-3-3-3-3-3-3------------------------------------| 
E|--------------------1-1-1-1-1----------------------------------------------| 

Intro:  Guitar 2 
e|---------------------------------------------------------------------------| 
B|---------------------------------------------------------------------------| 
G|------------------10-9-10-12/14-12-9-10-10-10-10-10-10-10-10-10-9-9-9-9-10~| 
D|-------------------x-x--x--x--x--x-x--x--x--x--x--x--x--x--x--x-x-x-x-x--x-| 
A|-------------------8-7--8-10/12-10-7--8--8--8--8--8--8--8--8--8-7-7-7-7--8~| 
E|---------------------------------------------------------------------------| 

Verse:  Guitar 1  (The stars are out...) 
e|---------------------------------------------------------------------------| 
B|---------------------------------------------------------------------------| 
G|7~-------------------------9-10-12-10~-------------------------------------| 
D|7~-------------------------x--x--x--x--------------------------------------| 
A|5~-------------------------7--8-10--8~-------------------------------------| 
E|---------------------------------------------------------------------------| 
 The stars are out tonight,    and you're the brightest one shining in my 

Verse Cont'd:  Guitar 1 
e|---------------------------------------------------------------------------| 
B|---------------------------------------------------------------------------| 
G|---5-5-5-5-5-5-5-5---------7----------3--------------------5-------7-------| 
D|---5-5-5-5-5-5-5-5---------7----------3-----------3--------5-------7-------| 
A|---3-3-3-3-3-3-3-3---------5----------1-----------3--------3-------5-------| 
E|--------------------------------------------------1------------------------| 
 sky,           It's like every wish I ever made came true,    the day I woke 

Verse Cont'd:  Guitar 1 
e|---------------------------------------------------------------------------| 
B|---------------------------------------------------------------------------| 
G|-----3---------------5-----------------------------------------------------| 
D|-----3------------3--5-----------------------------------------------------| 
A|-----1------------3--3-----------------------------------------------------| 
E|------------------1--------------------------------------------------------| 
 up lying next to   you. 

Verse:  Guitar 2 
e|---------------------------------------------------------------------------| 
B|---------------------------------------------------------------------------| 
G|10~----9-10-12-10~---9-9-9-9-9-9-9-9-10-10-9-10-12-12-10-9-10-10-9-7-5-7-9-| 
D|-x-----x--x--x--x----x-x-x-x-x-x-x-x--x--x-x--x--x--x--x-x--x--x-x-x-x-x-x-| 
A|-8~----7--8-10--8~---7-7-7-7-7-7-7-7--8--8-7--8-10-10--8-7--8--8-7-5-3-5-7-| 
E|---------------------------------------------------------------------------| 

Verse Cont'd:  Guitar 2 
e|---------------------------------------------------------------------------| 
B|---------------------------------------------------------------------------| 
G|10-10-9-10-12-12-10-9-14-14-14-14-15-15-15-12-12-12-12-12-12---------------| 
D|-x--x-x--x--x--x--x-x--x--x--x--x--x--x--x--x--x--x--x--x--x---------------| 
A|-8--8-7--8-10-10--8-7-12-12-12-12-13-13-13-10-10-10-10-10-10---------------| 
E|---------------------------------------------------------------------------| 

Chorus:  Guitar 1 
e|---------------------------------------------------------------------------| 
B|---------------------------------------------------------------------------| 
G|3-3-3--3-3-3-3-3-----------------5-5-5-5-5-5-5-5-3-3-3--3-3-3-3-3----------| 
D|3-3-3--3-3-3-3-3-3-3-3-3-3-3-3-3-5-5-5-5-5-5-5-5-3-3-3--3-3-3-3-3-3-3-3-3-3| 
A|1-1-1--1-1-1-1-1-3-3-3-3-3-3-3-3-3-3-3-3-3-3-3-3-1-1-1--1-1-1-1-1-3-3-3-3-3| 
E|-----------------1-1-1-1-1-1-1-1----------------------------------1-1-1-1-1| 

Chorus Cont'd:  Guitar 1 
e|---------------------------------------------------------------------------| 
B|---------------------------------------------------------------------------| 
G|------5-5-5-5-5-5-5-5--7-7-7-7-7-5-5-5-5-5-------------3-3-3-3-3-7-7-7-7-7-| 
D|3-3-3-5-5-5-5-5-5-5-5--7-7-7-7-7-5-5-5-5-5-3-3-3-3-3-3-3-3-3-3-3-7-7-7-7-7-| 
A|3-3-3-3-3-3-3-3-3-3-3--5-5-5-5-5-3-3-3-3-3-3-3-3-3-3-3-1-1-1-1-1-5-5-5-5-5-| 
E|1-1-1--------------------------------------1-1-1-1-1-1---------------------| 

Chorus Cont'd:  Guitar 1 
e|---------------------------------------------------------------------------| 
B|---------------------------------------------------------------------------| 
G|5-5-5-5-5-3-3-3--3-3-3-3-3-------------------------------------------------| 
D|5-5-5-5-5-3-3-3--3-3-3-3-3-------------------------------------------------| 
A|3-3-3-3-3-1-1-1--1-1-1-1-1-------------------------------------------------| 
E|---------------------------------------------------------------------------| 

Chorus:  Guitar 2 
e|---------------------------------------------------------------------------| 
B|---------------------------------------------------------------------------| 
G|10-9-10-9-10-9-10-9-10-9-10-9-10-9-10-9-14-14-14-14-14-14-12-12-12-12-12-12| 
D|-----------------------------------------x--x--x--x--x--x--x--x--x--x--x--x| 
A|----------------------------------------12-12-12-12-12-12-10-10-10-10-10-10| 
E|---------------------------------------------------------------------------| 

Chorus Cont'd:  Guitar 2 
e|---------------------------------------------------------------------------| 
B|---------------------------------------------------------------------------| 
G|10-10-10-10-10-10-14-14-14-14-14-14-15-15-17-17-17-17-17-17-17-17----------| 
D|-x--x--x--x--x--x--x--x--x--x--x--x--x--x--x--x--x--x--x--x--x--x----------| 
A|-8--8--8--8--8--8-12-12-12-12-12-12-13-13-15-15-15-15-15-15-15-15----------| 
E|---------------------------------------------------------------------------| 

Chorus Cont'd:  Guitar 2 
e|---------------------------------------------------------------------------| 
B|---------------------------------------------------------------------------| 
G|7-7-7-7-7-5-5-5-5-5-----------3-3-3-3-3-14-14-14-14-14-14-12-12-12-12-12-12| 
D|7-7-7-7-7-5-5-5-5-5-3-3-3-3-3-3-3-3-3-3--x--x--x--x--x--x--x--x--x--x--x--x| 
A|5-5-5-5-5-3-3-3-3-3-3-3-3-3-3-1-1-1-1-1-12-12-12-12-12-12-10-10-10-10-10-10| 
E|--------------------1-1-1-1-1----------------------------------------------| 

Chorus Cont'd:  Guitar 2 
e|---------------------------------------------------------------------------| 
B|---------------------------------------------------------------------------| 
G|3-3-3--3-3-3-3-3-----------------------------------------------------------| 
D|3-3-3--3-3-3-3-3-----------------------------------------------------------| 
A|1-1-1--1-1-1-1-1-----------------------------------------------------------| 
E|---------------------------------------------------------------------------| 

2nd Verse:  Guitar 1 Repeats 1st verse 

2nd Verse:  Guitar 2  (You have to find where it fits) 
e|---------------------------------------------------------------------------| 
B|---------------------------------------------------------------------------| 
G|---9-10-12-10-10-10-10-10-10-10-10-10-10-10-10-10-10-10-10-9-9-9-9-9-9-9-9-| 
D|---x--x--x--x--x--x--x--x--x--x--x--x--x--x--x--x--x--x--x-x-x-x-x-x-x-x-x-| 
A|---7--8-10--8--8--8--8--8--8--8--8--8--8--8--8--8--8--8--8-7-7-7-7-7-7-7-7-| 
E|---------------------------------------------------------------------------| 

2nd Verse Cont'd:  Guitar 2 
e|---------------------------------------------------------------------------| 
B|---------------------------------------------------------------------------| 
G|----14-14-12-9-10-10-10-10-10-10-10-10-10-10-10-10-10-10-10-10-12-12-12-12-| 
D|-----x--x--x-x--x--x--x--x--x--x--x--x--x--x--x--x--x--x--x--x--x--x--x--x-| 
A|----12-12-10-7--8--8--8--8--8--8--8--8--8--8--8--8--8--8--8--8-10-10-10-10-| 
E|---------------------------------------------------------------------------| 

2nd Chorus:  Guitar 1 Repeats 1st Chorus 

2nd Chorus:  Guitar 2 
e|---------------------------------------------------------------------------| 
B|---------------------------------------------------------------------------| 
G|10-9-10-9-10-9-10-9-10-9-10-9-10-9-10-9-14-14-14-14-14-14-12-12-12-12-12-12| 
D|-----------------------------------------x--x--x--x--x--x--x--x--x--x--x--x| 
A|----------------------------------------12-12-12-12-12-12-10-10-10-10-10-10| 
E|---------------------------------------------------------------------------| 

2nd Chorus Cont'd:  Guitar 2 
e|---------------------------------------------------------------------------| 
B|---------------------------------------------------------------------------| 
G|10-10-10-10-10-10-14-14-14-14-14-14-15-15-17-17-17-17-17-17-17-17----------| 
D|-x--x--x--x--x--x--x--x--x--x--x--x--x--x--x--x--x--x--x--x--x--x----------| 
A|-8--8--8--8--8--8-12-12-12-12-12-12-13-13-15-15-15-15-15-15-15-15----------| 
E|---------------------------------------------------------------------------| 

2nd Chorus Cont'd:  Guitar 2 
e|---------------------------------------------------------------------------| 
B|---------------------------------------------------------------------------| 
G|10-10-10-10-10-12-12-12-12-12-14-15-14-15-14-15-12-14-14-14-14-14-14-12-12-| 
D|-x--x--x--x--x--x--x--x--x--x--x--x--x--x--x--x--x--x--x--x--x--x--x--x--x-| 
A|-8--8--8--8--8-10-10-10-10-10-12-13-12-13-12-13-10-12-12-12-12-12-12-10-10-| 
E|---------------------------------------------------------------------------| 

2nd Chorus Cont'd:  Guitar 2 
e|---------------------------------------------------------------------------| 
B|---------------------------------------------------------------------------| 
G|12-12-12-12-10-10-10--10-10-10-10-10---------------------------------------| 
D|-x--x--x--x--x--x--x---x--x--x--x--x---------------------------------------| 
A|10-10-10-10--8--8--8---8--8--8--8--8---------------------------------------| 
E|---------------------------------------------------------------------------| 

Breakdown:  Guitar 1 
e|---------------------------------------------------------------------------| 
B|---------------------------------------------------------------------------| 
G|5~---3-2----5~---3-2---2h3-2~---5~--3-2----5~---3~-------------------------| 
D|5~-------3--5~-------3----------5~------3--5~---3~-------------------------| 
A|3~----------3~------------------3~---------3~---1~-------------------------| 
E|---------------------------------------------------------------------------| 

Breakdown :  Guitar 2      Then:  Repeat tons of times  End On: 
e|------------------------|---------------------------|----------------------| 
B|------------------------|---------------------------|----------------------| 
G|5~--3-2----5~---3-2-----|-10-9-10-9-10-9------------|---10~----------------| 
D|5~------3--5~-------3---|---------------------------|----------------------| 
A|3~---------3~-----------|---------------------------|----------------------| 
E|------------------------|---------------------------|----------------------| 



If something in this is wrong email me at RideTheLightning215@hotmail.com and correct it
Tap to rate this tab
 
# A B C D E F G H I J K L M N O P Q R S T U V W X Y Z