Song name
# A B C D E F G H I J K L M N O P Q R S T U V W X Y Z

Ataris - We All Become Smoke tab

Help us improve GuitareTab! Take a short survey!
The Ataris
We All Become Smoke
Welcome The Night
Submitted by: paramore_fans@yahoo.com


Tuning: Standard EADGBe


Chords used:
C#9/A - x0664x
Eb7 -   x6565x
G# -    466544
A -     x02220
B -     x24442
C#m -   x46654
G#/C -  x365xx
E -     022100
E/G# -  476xxx or 4xx45x


Intro:
       C#9/A              Eb7                       G#
e|-----------------|-----------------|-------------4-4-4-----------------|
B|---------4-------|---------5-------|-----------------------------------|
G|-----6-----6---6-|-----6-----6---6-|-6-6-6-5-5-5-------5-5-5-6-6-6-5-5-|
D|---6---6-----6---|---5---5-----5---|-----------------------------------|
A|-0---------------|-6---------------|-----------------------------------|
E|-----------------|-----------------|-----------------------------------|
then
       C#9/A              Eb7                G#
e|-----------------|-----------------|-------------------------------|
B|---------4-------|---------5-------|-------------4---4-5-5-5-4-4-4-|
G|-----6-----6---6-|-----6-----6---6-|-6-6-6-5-5-5---5---------------|
D|---6---6-----6---|---5---5-----5---|-------------------------------|
A|-0---------------|-6---------------|-------------------------------|
E|-----------------|-----------------|-------------------------------|


Verse 1:
C#9/A Eb7     G#
   We all are so faithful
C#9/A  Eb7     G#
    We all are so lost within our hearts
A            B          G#/C
  There's a spark in reply
             C#m
And then our colors burst in gold
A        G#/C
  And we all become like...


Chorus:
E       C#m         E       C#m
 Fading into nothing,fading into nothing
A       E/G#        A         E/G#         
(repeat 1st part of intro)
 Just a trace of my life That burns when I fade across


Verse 2:
C#9/A          Eb7 G#
  And still we all are so hopeful
A        B                     G#/C
  So you write our sins in our blood
           C#m
We look so tired in our eyes
A     G#/C
  Yet so afraid of


(Repeat Chorus 1)


Interlude:
e|-------7---4-|-----0----0---0-|-------7---4-|-----0----0-|
B|-----5-------|---4---2----2---|-----5-------|---4---2----|
G|---6---------|-2--------------|---6---------|-2----------|
D|-4-----------|----------------|-4-----------|------------|
A|-------------|----------------|-------------|------------|
E|-------------|----------------|-------------|------------|
then
e|---0---0---0---0---0---------|
B|-4---4---4---4---4---4-2---1-|
G|-----------------------------|
D|-----------------------------|
A|-----------------------------|
E|-----------------------------|


Bridge:
C#m  E       C#m    A       E/G# A 
     E/G#
  We all are so, we all are so   faithful


(Repeat Chorus 1)


Chorus 2:
E        C#m         E       C#m
  Fading into nothing,fading into nothing
A        E/G#        A                E/G#  
 C#9/A-Eb7(hold)
  Just a trace of my heart Leaves its mark upon a heart
Related for We All Become Smoke tab