Song name
# A B C D E F G H I J K L M N O P Q R S T U V W X Y Z

Ataris - And We All Become Like Smoke tab

Intro and Verse

|-------0---------------1-0---0--0-0-0-0-0-0--5-5--0-0-0-0-0-0-0-|
|----3----3---3-----3-------1----3-3-3-2-2-2--2-2--2-2-3-3-3-2-2-|
|--2---2----2-----1---1----------2-2-2-2-2-2-------2-2-2-2-2-2-2-|
|---------------2------------------------------------------------|
|1---------------------------------------------------------------|
|----------------------------------------------------------------|

Bridge

|-5-5------5--|
|-----6--8---5|
|-------------|
|-------------|
|-------------|

Chorus

|---------------------------------------------------------------|
|---------------------------------------------------------------|
|----------7-------------------7-------4---------2------------4-|
|-3--------7---------3---------7-------4---------2------------4-|
|-3--------5---------3---------5-------2---------0------------2-|
|-1------------------1------------------------------------------|

"Fading into nothing, fading into nothing, just a trace of light

|---------------------------|
|---------------------------|
|----2----------------------|
|----2----------------------|
|----0----------------------|
|---------------------------|

That burns within our thoughts

Repeat all
Tap to rate this tab
# A B C D E F G H I J K L M N O P Q R S T U V W X Y Z