Song name
# A B C D E F G H I J K L M N O P Q R S T U V W X Y Z

Ataxia - Emptys Response tab

-------------------------------------------------------------------------------
                             The Empty's Responce - Ataxia
-------------------------------------------------------------------------------
Tabbed by: Redbeard+LP
E-mail: redbeardandthelyingpirates@gmail.com

Tuning: Standard

Intro

e|----------------|--------1-------|--------1-------|----------------|
B|--------3-------|----3-----3-----|----3-----3-----|--3-4-3-3-4-3---|
G|----3-------3---|2-----------3/2-|1-----------3-2-|0-------------3-|
D|3---------------|----------------|----------------|----------------|
A|----------------|----------------|----------------|----------------|
E|----------------|----------------|----------------|----------------|

e|----------------|--------1-------|--------3-1-----|--------3-1-----|
B|----3---3-------|----3-----3-----|----3-------3---|--3-4-3-----3---|
G|------3---3-3-2-|2-----------3-2-|1-------------3-|1-------------3-|
D|3---------------|----------------|----------------|----------------|
A|----------------|----------------|----------------|----------------|
E|----------------|----------------|----------------|----------------|

This is also the leading pattern in the verses. I hope you'll enjoy it!



************************************

| /   slide up
| \   slide down
| h   hammer-on
| p   pull-off
| ~   vibrato
| +   harmonic
| x   Mute note
| b   Bend
| pb  Pre-bend
| br  Bend release
| pbr Pre-bend release
| brb Bend release bend

************************************
Tap to rate this tab
 
# A B C D E F G H I J K L M N O P Q R S T U V W X Y Z