Song name
# A B C D E F G H I J K L M N O P Q R S T U V W X Y Z

Atb - Feel Alive tab

e|------------------------------------------------------------------------|
B|------------------------------------------------------------------------|
G|------------------------------------------------------------------------|
D|-------------2-2-4-4-4-5-5-5-7-7--9-9-9-7-7-7-5-5-7-7-7-5-5-5-4-4-------|
A|-3-3-3-5-5-5------------------------------------------------------------|
E|------------------------------------------------------------------------|


e|------------------------------------------------------------------------|
B|------------------------------------------------------------------------|
G|------------------------------------------------------------------------|
D|-------------2-2-4-4-4-5-5-5-7-7--5-5-5-7-7-7-5-5-7-7-7-5-5-5-4-4-------|
A|-3-3-3-5-5-5------------------------------------------------------------|
E|------------------------------------------------------------------------|

My first tab =)
Tap to rate this tab
# A B C D E F G H I J K L M N O P Q R S T U V W X Y Z