Song name
# A B C D E F G H I J K L M N O P Q R S T U V W X Y Z

Atb - Ecstasy tab

This is the intro and riff repeated in the background


     E  E  E  E  E  E  E  E   
E||--------------------------|
B||--------------------------|
G||--------1--------1--------|
D||--------------------------|
A||-----2--------2--------2--|
E||--0--------0--------0-----|


  E  E  E  E  E  E  E  E   
--------------------------|
--------------------------|
--------1--------1--------|
--------------------------|
-----2--------2--------2--|
--0--------0--------0-----|


  E  E  E  E  E  E  E  E   
--------------------------|
--------5--------5--------|
--------------------------|
-----6--------6--------6--|
--4--------4--------4-----|
--------------------------|


  E  E  E  E  E  E  E  E   
--------------------------|
--------4--------4--------|
--------------------------|
-----4--------4--------4--|
--2--------2--------2-----|
--------------------------|


  E  E  E  E  E  E  E  E   
--------------------------|
--------------------------|
--------1--------1--------|
--------------------------|
-----2--------2--------2--|
--0--------0--------0-----|


  E  E  E  E  E  E  E  E   
--------------------------|
--------------------------|
--------1--------1--------|
--------------------------|
-----2--------2--------2--|
--0--------0--------0-----|


  E  E  E  E  E  E  E  E   
--------------------------|
--------5--------5--------|
--------------------------|
-----6--------6--------6--|
--4--------4--------4-----|
--------------------------|


  E  E  E  E  E  E  E  E                
--------------------------|-----|-----||
--------7--------7--------|-----|-----||
--------------------------|-----|-----||
-----9--------9--------9--|-----|-----||
--7--------7--------7-----|-----|-----||
--------------------------|-----|-----||
Tap to rate this tab
 
# A B C D E F G H I J K L M N O P Q R S T U V W X Y Z