Song name
# A B C D E F G H I J K L M N O P Q R S T U V W X Y Z

Atheist - Mother Man tab

Help us improve GuitareTab! Take a short survey!
                                  MOTHER MAN
                             As recorded by Atheist
                  (From the 1991 Album UNQUESTIONABLE PRESENCE)

Tablature Legend
----------------
 h   - hammer-on
 p   - pull-off
 b   - bend
 pb  - pre-bend
 r   - bend release (if no number after the r, then release immediately)
 /\  - slide into or out of (from/to "nowhere")
 s   - legato slide
 S   - shift slide
  - natural harmonic
[n]  - artificial harmonic
n(n) - tapped harmonic
 ~   - vibrato
 tr  - trill
 T   - tap
 TP  - trem. picking
 PM  - palm muting
\n/  - tremolo bar dip; n = amount to dip
 \n  - tremolo bar down
 n/  - tremolo bar up
/n\  - tremolo bar inverted dip
 =   - hold bend; also acts as connecting device for hammers/pulls
 <>  - volume swell (louder/softer)
 x   - on rhythm slash represents muted slash
 o   - on rhythm slash represents single note slash

 Intro
  Technical Death Metal Q=120
  N.C.
 5/4                             3/4
  Gtr I
                 ~~~
|-------------|-----------------|--------|
|-------------|-----------------|--------|
|-------------|-----------------|--------|
|--------8----|-(8)--------(8)--|-(8)----|
|-----7-------|-----------------|--------|
|-------------|-----------------|--------|
|
| Gtr II
|                ~~~
|-------------|-----------------|--------|
|-------------|-----------------|--------|
|--------6----|-(6)--------(6)--|-(6)----|
|-----5-------|-----------------|--------|
|-------------|-----------------|--------|
|-------------|-----------------|--------|


  Faster Q=198
  E5
 6/4             5/4
  Gtrs I, II
|---------------|-----------||
|---------------|-----------||
|---------------|-----------||
|-9\------------|-----------||
|-7\------------|-----------||
|---------------|-----------||


   Verse
    N.C.
   6/4             5/4                 6/4             5/4
    Gtr I
                      ~~~~                                ~~~~
||----------------|-------------------|---------------|---------------------|
||o---------------|-------------------|---------------|---------------------|
||---9------------|--(9)---------(9)--|---------------|---------------------|
||----------------|-------------------|--8------------|--(8)---------(8)----|
||o---------------|-------------------|---------------|---------------------|
||----------------|-------------------|---------------|---------------------|
|
|   Gtr II
|                     ~~~~                                ~~~~
||----------------|-------------------|---------------|---------------------|
||o---------------|-------------------|---------------|---------------------|
||--12------------|-(12)--------(12)--|---------------|---------------------|
||----------------|-------------------|-11------------|-(11)--------(11)----|
||o---------------|-------------------|---------------|---------------------|
||----------------|-------------------|---------------|---------------------|


  1.
 4/4
              ~~~~                      ~~~~
|-------------------------|--------------------------||
|------8------------------|------8------------------o||
|--9------9--(9)-----9----|--9------9--(9)-----9-----||
|-----------------8-------|-----------------8--------||
|----------------------10-|----------------------10-o||
|-------------------------|--------------------------||
|
|             ~~~~                      ~~~~
|-------------------------|--------------------------||
|-----11------------------|-----11------------------o||
|-12-----12-(12)----12----|-12-----12-(12)----12-----||
|----------------11----11-|----------------11----11--||
|-------------------------|-------------------------o||
|-------------------------|--------------------------||


  2.
  N.C.
              ~~~~                      ~~~~
|-------------------------|-------------------------|
|------8------------------|------8------------------|
|--9------9--(9)-----9----|--9------9--(9)-----9----|
|-----------------8-------|-----------------8-------|
|----------------------10-|----------------------10-|
|-------------------------|-------------------------|
|
|             ~~~~                      ~~~~
|-------------------------|-------------------------|
|-----11------------------|-----11------------------|
|-12-----12-(12)----12----|-12-----12-(12)----12----|
|----------------11----11-|----------------11----11-|
|-------------------------|-------------------------|
|-------------------------|-------------------------|


              ~~~~                      ~~~~                      ~~~~
|-------------------------|-------------------------|-------------------------|
|------6------------------|------6------------------|------8------------------|
|--7------7--(7)-----7----|--7------7--(7)-----7----|--9------9--(9)-----9----|
|-----------------6-----5-|-----------------6-----5-|-----------------8-------|
|-------------------------|-------------------------|----------------------10-|
|-------------------------|-------------------------|-------------------------|
|
|             ~~~~                      ~~~~                      ~~~~
|-------------------------|-------------------------|-------------------------|
|-----10------------------|-----10------------------|-----11------------------|
|-11-----11-(11)----11----|-11-----11-(11)----11----|-12-----12-(12)----12----|
|----------------10----10-|----------------10----10-|----------------11----11-|
|-------------------------|-------------------------|-------------------------|
|-------------------------|-------------------------|-------------------------|


              ~~~~                      ~~~~                      ~~~~
|-------------------------|-------------------------|-------------------------|
|------8------------------|------6------------------|------6------------------|
|--9------9--(9)-----9----|--7------7--(7)-----7----|--7------7--(7)-----7----|
|-----------------8-------|-----------------6-----5-|-----------------6-----5-|
|----------------------10-|-------------------------|-------------------------|
|-------------------------|-------------------------|-------------------------|
|
|             ~~~~                      ~~~~                      ~~~~
|-------------------------|-------------------------|-------------------------|
|-----11------------------|-----10------------------|-----10------------------|
|-12-----12-(12)----12----|-11-----11-(11)----11----|-11-----11-(11)----11----|
|----------------11----11-|----------------10----10-|----------------10----10-|
|-------------------------|-------------------------|-------------------------|
|-------------------------|-------------------------|-------------------------|


    N.C.
    PM--|   PM--|     PM--|   PM--|     PM--|   PM--|     PM--|   PM--|
||------------------|-----------------|-----------------|-------------------||
||o-----------------|-----------------|-----------------|------------------o||
||------------------|-----------------|-----------------|-------------------||
||------------------|-----------------|-----------------|-------------------||
||o-------4-------4-|-------4-------4-|-------3-------3-|-------3-------3--o||
||--0-2-3---0-2-3---|-0-2-3---0-2-3---|-0-1-2---0-1-2---|-0-1-2---0-1-2-----||
|
|   PM--|   PM--|     PM--|   PM--|     PM--|   PM--|     PM--|   PM--|
||------------------|-----------------|-----------------|-------------------||
||o-----------------|-----------------|-----------------|------------------o||
||------------------|-----------------|-----------------|-------------------||
||------------------|-----------------|-----------------|-------------------||
||o-------7-------7-|-------7-------7-|-------6-------6-|-------6-------6--o||
||--3-5-6---3-5-6---|-3-5-6---3-5-6---|-3-4-5---3-4-5---|-3-4-5---3-4-5-----||


   Verse
    N.C.
    PM--|     PM----|   PM--|   PM--------|     PM----|   PM--|   PM|
||----------------|-----------------|---------------|-------------------||
||o---------------|-----------------|---------------|------------------o||
||----------------|-----------------|---------------|-------------------||
||----------------|-----------------|---------------|-------------------||
||o-------4-------|---4-------4-----|-------3-------|---3-------3------o||
||--0-2-3-----0-2-|-3---0-2-3---2-0-|-0-1-2-----0-1-|-2---0-1-2---2-0---||
|
|   PM--|     PM----|   PM--|   PM--------|     PM----|   PM--|   PM|
||----------------|-----------------|---------------|-------------------||
||o---------------|-----------------|---------------|------------------o||
||----------------|-----------------|---------------|-------------------||
||----------------|-----------------|---------------|-------------------||
||o-------7-------|---7-------7-----|-------6-------|---6-------6------o||
||--3-5-6-----3-5-|-6---3-5-6---5-3-|-3-4-5-----3-4-|-5---3-4-5---5-3---||


    N.C.
    PM--|   PM--|     PM--|   PM--|     PM--|   PM--|     PM--|   PM--|
||------------------|-----------------|-----------------|-------------------||
||o-----------------|-----------------|-----------------|------------------o||
||------------------|-----------------|-----------------|-------------------||
||------------------|-----------------|-----------------|-------------------||
||o-------4-------4-|-------4-------4-|-------3-------3-|-------3-------3--o||
||--0-2-3---0-2-3---|-0-2-3---0-2-3---|-0-1-2---0-1-2---|-0-1-2---0-1-2-----||
|
|   PM--|   PM--|     PM--|   PM--|     PM--|   PM--|     PM--|   PM--|
||------------------|-----------------|-----------------|-------------------||
||o-----------------|-----------------|-----------------|------------------o||
||------------------|-----------------|-----------------|-------------------||
||------------------|-----------------|-----------------|-------------------||
||o-------7-------7-|-------7-------7-|-------6-------6-|-------6-------6--o||
||--3-5-6---3-5-6---|-3-5-6---3-5-6---|-3-4-5---3-4-5---|-3-4-5---3-4-5-----||


 Verse
  E5     N.C.
 4/4
  Gtr I
           ~~~~~~~    ~~~~~~~  PM|
|-------------------|------------------|
|-------------------|------------------|
|-------------------|------------------|
|-------------------|------------------|
|-2--(2)------------|------------------|
|-0--(0)-5-6--(6)-2-|-3--(3)-0-2-3-5s6-|
|
| Gtr II
|          ~~~~~~~    ~~~~~~~  PM|
|-------------------|------------------|
|-------------------|------------------|
|-------------------|------------------|
|-------------------|------------------|
|-2--(2)------------|------------------|
|-0--(0)-5-6--(6)-2-|-3--(3)-0-2-3-5s6-|


  E5     N.C.
                     5/4
           ~~~~~~~    ~~~~~~~  PM|
|-------------------|-----------------------|
|-------------------|-----------------------|
|-------------------|-----------------------|
|-------------------|-----------------------|
|-2--(2)------------|-----------------------|
|-0--(0)-5-6--(6)-2-|-3--(3)-0-2-3-5s6-5-3--|
|
|          ~~~~~~~    ~~~~~~~  PM|
|-------------------|-----------------------|
|-------------------|-----------------------|
|-------------------|-----------------------|
|-------------------|--------------2h3p2p0--|
|-2--(2)-4-5--(5)---|-----------------------|
|-0--(0)----------6-|-7--(7)-0-2-3----------|


  E5     N.C.
 4/4
           ~~~~~~~    ~~~~~~~  PM|
|-------------------|------------------|
|-------------------|------------------|
|-------------------|------------------|
|-------------------|------------------|
|-2--(2)------------|------------------|
|-0--(0)-5-6--(6)-2-|-3--(3)-0-2-3-5s6-|
|
|          ~~~~~~~    ~~~~~~~  PM|
|-------------------|------------------|
|-------------------|------------------|
|-------------------|------------------|
|-------------------|------------------|
|-2--(2)-3-4--(4)---|------------------|
|-0--(0)----------5-|-6--(6)-0-2-3-5s6-|


  E5     N.C.
                     5/4
           ~~~~~~~    ~~~~~~~  PM|
|-------------------|-----------------------|
|-------------------|-----------------------|
|-------------------|-----------------------|
|-------------------|-----------------------|
|-2--(2)------------|-----------------------|
|-0--(0)-5-6--(6)-2-|-3--(3)-0-2-3-5s6-5-3--|
|
|          ~~~~~~~    ~~~~~~~  PM|
|-------------------|-----------------------|
|-------------------|-----------------------|
|-------------------|-----------------------|
|-------------------|--------------2h3p2p0--|
|-2--(2)-3-4--(4)---|-----------------------|
|-0--(0)----------5-|-6--(6)-0-2-3----------|


    N.C.
   4/4
    PM--|   PM--|     PM--|   PM--|     PM--|   PM--|     PM--|   PM--|
||------------------|-----------------|-----------------|-------------------||
||o-----------------|-----------------|-----------------|------------------o||
||------------------|-----------------|-----------------|-------------------||
||------------------|-----------------|-----------------|-------------------||
||o-------4-------4-|-------4-------4-|-------3-------3-|-------3-------3--o||
||--0-2-3---0-2-3---|-0-2-3---0-2-3---|-0-1-2---0-1-2---|-0-1-2---0-1-2-----||
|
|   PM--|   PM--|     PM--|   PM--|     PM--|   PM--|     PM--|   PM--|
||------------------|-----------------|-----------------|-------------------||
||o-----------------|-----------------|-----------------|------------------o||
||------------------|-----------------|-----------------|-------------------||
||------------------|-----------------|-----------------|-------------------||
||o-------7-------7-|-------7-------7-|-------6-------6-|-------6-------6--o||
||--3-5-6---3-5-6---|-3-5-6---3-5-6---|-3-4-5---3-4-5---|-3-4-5---3-4-5-----||


 Verse
  C5/F
|----------|------------|------------|--------|
|----------|------------|------------|--------|
|----------|------------|------------|--------|
|----------|------------|------------|--------|
|-3--------|-(3)--------|-(3)--------|-(3)----|
|-1--------|-(1)--------|-(1)--------|-(1)----|
|
|----------|------------|------------|--------|
|----------|------------|------------|--------|
|-5--------|-(5)--------|-(5)--------|-(5)----|
|-5--------|-(5)--------|-(5)--------|-(5)----|
|-3--------|-(3)--------|-(3)--------|-(3)----|
|----------|------------|------------|--------|


    D5
    Gtr I
||------------------------|-------------------------|
||o-----------------------|-------------------------|
||------------13-12-------|-------------12----------|
||--0-14-15-0-------15-14-|--0--14-15-0----15-14----|
||o-----------------------|----------------------15-|
||------------------------|-------------------------|
|
|   Gtr II
||------------------------|-------------------------|
||o-----------------------|-------------------------|
||--7---------------------|-(7)---------------------|
||--7---------------------|-(7)---------------------|
||o-5---------------------|-(5)---------------------|
||------------------------|-------------------------|


  C#5
|----------------------|---------------------------||
|----------------------|--------------------------o||
|-----------13---------|-------------12------------||
|-0-14-15-0----0-15-14-|--0--14-15-0----15-14------||
|----------------------|----------------------15--o||
|----------------------|---------------------------||
|
|----------------------|---------------------------||
|----------------------|--------------------------o||
|-6--------------------|-(6)-----------------------||
|-6--------------------|-(6)-----------------------||
|-4--------------------|-(4)----------------------o||
|----------------------|---------------------------||


  F5/G#
|-----------|-------------|-------------|---------|
|-----------|-------------|-------------|---------|
|-----------|-------------|-------------|---------|
|-10--------|-(10)--------|-(10)--------|-(10)----|
|--8--------|--(8)--------|--(8)--------|--(8)----|
|-----------|-------------|-------------|---------|
|
|-----------|-------------|-------------|---------|
|-----------|-------------|-------------|---------|
|-----------|-------------|-------------|---------|
|-----------|-------------|-------------|---------|
|--6--------|--(6)--------|--(6)--------|--(6)----|
|--4--------|--(4)--------|--(4)--------|--(4)----|


    N.C.
||-----------------------|------------------------||-|
||o----------------------|-----------------------o||-|
||------------13---------|-----------12-----------||-|
||--0-14-15-0----0-15-14-|-0-14-15-0----15-14-----||-|
||o----------------------|--------------------15-o||-|
||-----------------------|------------------------||-|
|
||-----------------------|------------------------||-|
||o----------------------|-----------------------o||-|
||-----------------------|------------------------||-|
||------------10---------|-----------10-----------||-|
||o-8-10-11-8----8-11-10-|-8-10-11-8----11-10--7-o||-|
||-----------------------|------------------------||-|


    N.C.
||--------------------------|--------------------------||
||o-------------------------|-------------------------o||
||--------------13----------|-------------12-----------||
||---0-14-15--0-----0-15-14-|--0-14-15--0----15-14-----||
||o-------------------------|----------------------15-o||
||--------------------------|--------------------------||
|
||---------------8----------|--------------8-----------||
||o-----8--9-----------9--8-|-----8--9--------9--8----o||
||--10-------10----10-------|-10-------10-----------9--||
||--------------------------|--------------------------||
||o-------------------------|-------------------------o||
||--------------------------|--------------------------||


 Lead: Shaefer
  E5         N.C.
  Gtr III
   ~~~~~~~~~~~~~~~
|-22b24--------22--(22)-(22)\---|---15-12-----------------|
|-------------------------------|----------15-12----------|
|-------------------------------|----------------14-12-14-|
|-------------------------------|-------------------------|
|-------------------------------|-------------------------|
|-------------------------------|-------------------------|
|
| Gtr I
|               ~~~~~~~~          ~~~~~~~~~    PM|
|-------------------------------|-------------------------|
|-------------------------------|-------------------------|
|-------------------------------|-------------------------|
|-------------------------------|-------------------------|
|--2-----(2)--------------------|-------------------------|
|--0-----(0)-5--6---(6)-------2-|-3----(3)--0--2--3--5s=6-|
|
| Gtr II
|               ~~~~~~~~          ~~~~~~~~~    PM|
|-------------------------------|-------------------------|
|-------------------------------|-------------------------|
|-------------------------------|-------------------------|
|-------------------------------|-------------------------|
|--2-----(2)--------------------|-------------------------|
|--0-----(0)-5--6---(6)-------2-|-3----(3)--0--2--3--5s=6-|


  E5             N.C.
                                       ~~~~~~~
|--------------------------------|----------------------------|
|--------------------------------|----------------------------|
|-14b16r(14)-12-----12-----------|----12-(12)-----------------|
|----------------14----14-13--12-|-14-----------14-12-14------|
|--------------------------------|-----------------------(12)-|
|--------------------------------|----------------------------|
|
|                    ~~~~~~~~~      ~~~~~~~~~~   PM|
|--------------------------------|----------------------------|
|--------------------------------|----------------------------|
|--------------------------------|----------------------------|
|--------------------------------|----------------------------|
|--2---------(2)-----------------|----------------------------|
|--0---------(0)--5--6----(6)--2-|--3-----(3)-0--2--3--5s==6--|
|
|                    ~~~~~~~~~      ~~~~~~~~~~   PM|
|--------------------------------|----------------------------|
|--------------------------------|----------------------------|
|--------------------------------|----------------------------|
|--------------------------------|----------------------------|
|--2---------(2)--4--5----(5)----|----------------------------|
|--0---------(0)---------------6-|--7-----(7)-0--2--3--5S==6--|


  E5              N.C.
|-------------------------------------------|------------------------------------------|
|-------------------------------------------|---------------------------------------14-|
|-------------------------------------------|---------------------------------------14-|
|----------------------12h14p12h14p=12h==14-|----------------------12h14p==12h14p12----|
|-12h14p12h14p=12h==14----------------------|-12h14p12h14p=12h==14---------------------|
|-------------------------------------------|------------------------------------------|
|
|                       ~~~~~~~~~~~~           ~~~~~~~~~~~~         PM---|
|-------------------------------------------|------------------------------------------|
|-------------------------------------------|------------------------------------------|
|-------------------------------------------|------------------------------------------|
|-------------------------------------------|------------------------------------------|
|--2-------(2)------------------------------|------------------------------------------|
|--0-------(0)----5-----6-------(6)----2----|--3-------(3)----0-----2----3-----5s====6-|
|
|                       ~~~~~~~~~~~~           ~~~~~~~~~~~~         PM---|
|-------------------------------------------|------------------------------------------|
|-------------------------------------------|------------------------------------------|
|-------------------------------------------|------------------------------------------|
|-------------------------------------------|------------------------------------------|
|--2-------(2)------------------------------|------------------------------------------|
|--0-------(0)----5-----6-------(6)----2----|--3-------(3)----0-----2----3-----5s====6-|


  E5               N.C.
                                    5/4
                                      ~~
|----------------------------------|-----------------------||
|-(14)b15r(14)---------------------|-----------------------||
|-(14)b15r(14)-12-----12-----------|-----------------------||
|------------------14----14-13--12-|-14--------------------||
|--------------10-----10-----------|-----------------------||
|------------------12----12-11--10-|-12--------------------||
|
|                      ~~~~~~~~~      ~~~~~~~  PM|
|----------------------------------|-----------------------||
|----------------------------------|-----------------------||
|----------------------------------|-----------------------||
|----------------------------------|-----------------------||
|---2----------(2)-----------------|-----------------------||
|---0----------(0)--5--6----(6)--2-|--3--(3)-0-2-3-5s6-5-3-||
|
|                      ~~~~~~~~~      ~~~~~~~  PM|
|----------------------------------|-----------------------||
|----------------------------------|-----------------------||
|----------------------------------|-----------------------||
|----------------------------------|---------------2h3p2p0-||
|---2----------(2)--3--4----(4)----|-----------------------||
|---0----------(0)---------------5-|--6--(6)-0-2-3---------||


 Lead: Burkey
  N.C.
 4/4
  Gtr IV
|-16p12----12-16p12h16p12----12-16p12----12h16p12-|
|-------15----------------15----------15----------|
|-------------------------------------------------|
|-------------------------------------------------|
|-------------------------------------------------|
|-------------------------------------------------|
|
| Gtr I
|  PM---------|            PM---------|
|-------------------------------------------------|
|-------------------------------------------------|
|-------------------------------------------------|
|-------------------------------------------------|
|--------------------4-----------------------4----|
|--0-----2-----3-----------0-----2-----3----------|
|
| Gtr II
|  PM---------|            PM---------|
|-------------------------------------------------|
|-------------------------------------------------|
|-------------------------------------------------|
|-------------------------------------------------|
|--------------------7-----------------------7----|
|--3-----5-----6-----------3-----5-----6----------|


   T        T        T        T        T        T        T        T
|-22p12h16-22p12h16-22p12h16-21p12h16-21p12h16-21p12h16-21p12h16-21p12h16-|
|-------------------------------------------------------------------------|
|-------------------------------------------------------------------------|
|-------------------------------------------------------------------------|
|-------------------------------------------------------------------------|
|-------------------------------------------------------------------------|
|
|  PM---------------|                  PM---------------|
|-------------------------------------------------------------------------|
|-------------------------------------------------------------------------|
|-------------------------------------------------------------------------|
|-------------------------------------------------------------------------|
|-----------------------------4-----------------------------------4-------|
|--0--------2--------3-----------------0--------2--------3----------------|
|
|  PM---------------|                  PM---------------|
|-------------------------------------------------------------------------|
|-------------------------------------------------------------------------|
|-------------------------------------------------------------------------|
|-------------------------------------------------------------------------|
|-----------------------------7-----------------------------------7-------|
|--3--------5--------6-----------------3--------5--------6----------------|


   T
|-21p15p12h15p12----12-15p12h15p12----12-15p12----12-|
|----------------14----------------14----------14----|
|----------------------------------------------------|
|----------------------------------------------------|
|----------------------------------------------------|
|----------------------------------------------------|
|
|  PM------------|            PM---------|
|----------------------------------------------------|
|----------------------------------------------------|
|----------------------------------------------------|
|----------------------------------------------------|
|-----------------------3-----------------------3----|
|--0--------1-----2-----------0-----1-----2----------|
|
|  PM------------|            PM---------|
|----------------------------------------------------|
|----------------------------------------------------|
|----------------------------------------------------|
|----------------------------------------------------|
|-----------------------6-----------------------6----|
|--3--------4-----5-----------3-----4-----5----------|


   T        T        T        T        T        T        T        T
|-20p12h15-20p12h15-20p12h15-19p12h15-19p12h15-19p12h15-19p12h15-19p12h15-|
|-------------------------------------------------------------------------|
|-------------------------------------------------------------------------|
|-------------------------------------------------------------------------|
|-------------------------------------------------------------------------|
|-------------------------------------------------------------------------|
|
|  PM---------------|                  PM---------------|
|-------------------------------------------------------------------------|
|-------------------------------------------------------------------------|
|-------------------------------------------------------------------------|
|-------------------------------------------------------------------------|
|-----------------------------3-----------------------------------3-------|
|--0--------1--------2-----------------0--------1--------2----------------|
|
|  PM---------------|                  PM---------------|
|-------------------------------------------------------------------------|
|-------------------------------------------------------------------------|
|-------------------------------------------------------------------------|
|-------------------------------------------------------------------------|
|-----------------------------6-----------------------------------6-------|
|--3--------4--------5-----------------3--------4--------5----------------|


  TP          TP            TP            TP
|-------------------------|-----------------------------|
|-------------------------|-----------------------------|
|-------------------------|-----------------------------|
|-------------------------|---------------8---11-8---11-|
|-------------------------|-7---10-7---10---------------|
|-0---3-0---3-6---9-6---9-|-----------------------------|
|
| PM--|       PM--|         PM--|         PM--|
|-------------------------|-----------------------------|
|-------------------------|-----------------------------|
|-------------------------|-----------------------------|
|-------------------------|-----------------------------|
|---------4-----------4---|----------4-------------4----|
|-0-2-3-------0-2-3-------|-0-2--3--------0-2--3--------|
|
| PM--|       PM--|         PM--|         PM--|
|-------------------------|-----------------------------|
|-------------------------|-----------------------------|
|-------------------------|-----------------------------|
|-------------------------|-----------------------------|
|---------7-----------7---|----------7-------------7----|
|-3-5-6-------3-5-6-------|-3-5--6--------3-5--6--------|


  TP             TP                TP              TP
|-------------------------------|-12---15-12---15-18---21-18---21---||
|---------------11---14-11---14-|-----------------------------------||
|-9---12-9---12-----------------|-----------------------------------||
|-------------------------------|-----------------------------------||
|-------------------------------|-----------------------------------||
|-------------------------------|-----------------------------------||
|
| PM--|          PM--|             PM--|           PM--|
|-------------------------------|-----------------------------------||
|-------------------------------|-----------------------------------||
|-------------------------------|-----------------------------------||
|-------------------------------|-----------------------------------||
|----------3---------------3----|------------3---------------3------||
|-0-1--2---------0-1--2---------|--0-1--2----------0-1--2-----------||
|
| PM--|          PM--|             PM--|           PM--|
|-------------------------------|-----------------------------------||
|-------------------------------|-----------------------------------||
|-------------------------------|-----------------------------------||
|-------------------------------|-----------------------------------||
|----------6---------------6----|------------6---------------6------||
|-3-4--5---------3-4--5---------|--3-4--5----------3-4--5-----------||


 Bridge
  E5
 11/8                          10/8
                ~~~~~~~~~~~~~~~~~~~~~~~~~~~~~
|-22b24=======(22)-------(22)-|-22------(22)--(22)r=|
|-----------------------------|---------------------|
|-----------------------------|---------------------|
|-----------------------------|---------------------|
|-----------------------------|---------------------|
|-----------------------------|---------------------|
|
|-----------------------------|---------------------|
|-----------------------------|---------------------|
|-----------------------------|---------------------|
|-----------------------------|---------------------|
|--2----------------(2)-------|--2-------------(2)--|
|--0----------------(0)-------|--0-------------(0)--|
|
|-----------------------------|---------------------|
|-----------------------------|---------------------|
|-----------------------------|---------------------|
|-----------------------------|---------------------|
|--2----------------(2)-------|--2-------------(2)--|
|--0----------------(0)-------|--0-------------(0)--|


 11/8                               10/8
                    ~~                ~~~~~~~~~~~~
|-22b25===(22)r-22-22---------(22)-|-22------(22)--------|
|----------------------------------|---------------------|
|----------------------------------|---------------------|
|----------------------------------|---------------------|
|----------------------------------|---------------------|
|----------------------------------|---------------------|
|
|----------------------------------|---------------------|
|----------------------------------|---------------------|
|----------------------------------|---------------------|
|----------------------------------|---------------------|
|--2---------------------(2)-------|--2------------(2)---|
|--0---------------------(0)-------|--0------------(0)---|
|
|  ~~~~~~                             ~~
|----------------------------------|---------------------|
|----------------------------------|---------------------|
|--4---------------------(4)-------|--4------------(4)---|
|--5---------------------(5)-------|--5------------(5)---|
|----------------------------------|---------------------|
|----------------------------------|---------------------|


    N.C.
   11/8                     10/8
    Gtr I
               PM|   PM                 PM  PM
||-------------------------|-----------------------||
||o------------------------|----------------------o||
||-------------------------|-----------------------||
||-----8-5-(5)-------------|----8-5-(5)------------||
||o-7--------------6---5-4-|-7------------6---5-4-o||
||-------------0-5---4-----|------------5---4------||
|
|   Gtr II
|              PM|   PM                 PM  PM
||-------------------------|-----------------------||
||o------------------------|----------------------o||
||-------------------------|-----------------------||
||-----8-5-(5)-------------|----8-5-(5)------------||
||o-7--------------6---5-4-|-7------------6---5-4-o||
||-------------0-5---4-----|------------5---4------||


  E5
 11/8
|----------------------------|
|-12----------------(12)-----|
|--9-----------------(9)-----|
|----------------------------|
|----------------------------|
|----------------------------|
|
|             PM|     PM
|----------------------------|
|----------------------------|
|----------------------------|
|-----8-5-(5)----------------|
|--7--------------6------5-4-|
|-------------0-5-----4------|


 10/8
|----------------------------|
|-(12)----------------(12)---|
|--(9)-----------------(9)---|
|----------------------------|
|----------------------------|
|----------------------------|
|
|               PM  PM
|----------------------------|
|----------------------------|
|----------------------------|
|-------8-5-(5)--------------|
|---7-------------6-----5--4-|
|---------------5---4--------|


  Bb5
 11/8                         10/8
|----------------------------|----------------------------|
|----------------------------|----------------------------|
|-10----------------(10)-----|-(10)----------------(10)---|
|--8-----------------(8)-----|--(8)-----------------(8)---|
|----------------------------|----------------------------|
|----------------------------|----------------------------|
|
|             PM|     PM                     PM  PM
|----------------------------|----------------------------|
|----------------------------|----------------------------|
|----------------------------|----------------------------|
|-----8-5-(5)----------------|-------8-5-(5)--------------|
|--7--------------6------5-4-|---7-------------6-----5--4-|
|-------------0-5-----4------|---------------5---4--------|


                                                  Fas
    N.C.
   11/8                     10/8
               PM|   PM                 PM  PM
||-------------------------|-----------------------||
||o------------------------|----------------------o||
||-------------------------|-----------------------||
||-----8-5-(5)-------------|----8-5-(5)------------||
||o-7--------------6---5-4-|-7------------6---5-4-o||
||-------------0-5---4-----|------------5---4------||
|
|              PM|   PM                 PM  PM
||-------------------------|-----------------------||
||o------------------------|----------------------o||
||-------------------------|-----------------------||
||-----8-5-(5)-------------|----8-5-(5)------------||
||o-7--------------6---5-4-|-7------------6---5-4-o||
||-------------0-5---4-----|------------5---4------||


 ter Q=212
  N.C.
 4/4
|---------------------|----------------------|
|---------------------|----------------------|
|--9p0--8p0-----------|----------------------|
|------------9p0--8p0-|--7p0-----------------|
|---------------------|-------9p0--8p0--7p0--|
|---------------------|----------------------|
|
|---------------------|----------------------|
|---------------------|----------------------|
|-12p0-11p0-----------|----------------------|
|-----------12p0-11p0-|-10p0-----------------|
|---------------------|------12p0-11p0-10p0--|
|---------------------|----------------------|


   Verse
    (Bm)                            (A)
   3/4
    PM----------------------------------------------------------|
||----------------|---------------|---------------|----------------||
||o---------------|---------------|---------------|---------------o||
||----------------|---------------|---------------|----------------||
||----------------|---------------|---------------|----------------||
||o---------------|---------------|---------------|---------------o||
||--7-7-7-7-7-7-7-|-7-7-7-7-7-7-7-|-5-5-5-5-5-5-5-|-5-5-5-5-5-5-5--||
|
|   PM----------------------------------------------------------|
||----------------|---------------|---------------|----------------||
||o---------------|---------------|---------------|---------------o||
||----------------|---------------|---------------|----------------||
||----------------|---------------|---------------|----------------||
||o-5-5-5-5-5-5-5-|-5-5-5-5-5-5-5-|-4-4-4-4-4-4-4-|-4-4-4-4-4-4-4-o||
||----------------|---------------|---------------|----------------||


    (F#m)                           (Em)
    PM----------------------------------------------------------|
||----------------|---------------|---------------|-----------------||
||o---------------|---------------|---------------|----------------o||
||----------------|---------------|---------------|-----------------||
||----------------|---------------|---------------|-----------------||
||o---------------|---------------|---------------|----------------o||
||--2-2-2-2-2-2-2-|-2-2-2-2-2-2-2-|-0-0-0-0-0-0-0-|-0-0-0-0-0-0-0---||
|
|   PM----------------------------------------------------------|
||----------------|---------------|---------------|-----------------||
||o---------------|---------------|---------------|----------------o||
||----------------|---------------|---------------|-----------------||
||----------------|---------------|---------------|-----------------||
||o---------------|---------------|---------------|----------------o||
||--5-5-5-5-5-5-5-|-5-5-5-5-5-5-5-|-3-3-3-3-3-3-3-|-3-3-3-3-3-3-3---||


    N.C.
    PM-------------------------------------------------
||--------------------------|-------------------------|
||o-------------------------|-------------------------|
||--------------------------|-------------------------|
||--------------------------|-------------------------|
||o-------------------------|-------------------------|
||--7-7-7--7-7-7-7--7-7-7-7-|-7-7-7--7-7-7-7--7-7-7-7-|
|
||--------------------------|-------------------------|
||o-------------------------|-------------------------|
||--------------------------|-------------------------|
||--------------------------|-------------------------|
||o---9---10---7------------|---9---10---7------------|
||--7--------------10---9---|-7--------------10---9---|


 ---------------------------------------------|
|-----------------------|--------------------------||
|-----------------------|-------------------------o||
|-----------------------|--------------------------||
|-----------------------|--------------------------||
|-----------------------|-------------------------o||
|-5-5-5-5-5-5-5-5-5-5-5-|-5-5-5-5-5-5-5-5-5-5-5----||
|
|-----------------------|--------------------------||
|-----------------------|-------------------------o||
|-----------------------|--------------------------||
|-----------------------|--------------------------||
|---7---8---5-----------|---7---8---5-------------o||
|-5-------------8---7---|-5-------------8---7------||


    N.C.
    PM--------------------------------------------------|
||--------------|-------------|-------------|--------------||
||o-------------|-------------|-------------|-------------o||
||--------------|-------------|-------------|--------------||
||--------------|-------------|-------------|--------------||
||o-------------|-------------|-------------|-------------o||
||--2-2-2-2-2-2-|-2-2-2-2-2-2-|-0-0-0-0-0-0-|-0-0-0-0-0-0--||
|
|   PM--------------------------------------------------|
||--------------|-------------|-------------|--------------||
||o-------------|-------------|-------------|-------------o||
||--------------|-------------|-------------|--------------||
||--------------|-------------|-------------|--------------||
||o---4-5-2-----|---4-5-2-----|---2-3-0-----|---2-3-0-----o||
||--2-------5-4-|-2-------5-4-|-0-------3-2-|-0-------3-2--||


  N.C.
  Gtrs I, II
  PM------------------------------------------------------|
|---------------|---------------|-------------|-------------|
|---------------|---------------|-------------|-------------|
|---------------|---------------|-------------|-------------|
|---------------|---------------|-------------|-------------|
|---9-10-7------|---9-10-7------|---7-8-5-----|---7-8-5-----|
|-7--------10-9-|-7--------10-9-|-5-------8-7-|-5-------8-7-|


  Gtr I
|---------------|---------------|-------------|-------------|
|---------------|---------------|-------------|-------------|
|---------------|---------------|-------------|-------------|
|---------------|---------------|-------------|-------------|
|---9-10-7------|---9-10-7------|---7-8-5-----|---7-8-5-----|
|-7--------10-9-|-7--------10-9-|-5-------8-7-|-5-------8-7-|
|
| Gtr II
|---------------|---------------|-------------|-------------|
|---------------|---------------|-------------|-------------|
|---------------|---------------|-------------|-------------|
|---7--8-5------|---7--8-5------|-------------|-------------|
|-5---------8-7-|-5---------8-7-|---7-8-5-----|---7-8-5-----|
|---------------|---------------|-5-------8-7-|-5-------8-7-|


    N.C.
    PM--------------------------------------------------|
||--------------|-------------|-------------|--------------||
||o-------------|-------------|-------------|-------------o||
||--------------|-------------|-------------|--------------||
||--------------|-------------|-------------|--------------||
||o-------------|-------------|-------------|-------------o||
||--2-2-2-2-2-2-|-2-2-2-2-2-2-|-0-0-0-0-0-0-|-0-0-0-0-0-0--||
|
|   PM--------------------------------------------------|
||--------------|-------------|-------------|--------------||
||o-------------|-------------|-------------|-------------o||
||--------------|-------------|-------------|--------------||
||--------------|-------------|-------------|--------------||
||o---4-5-2-----|---4-5-2-----|---2-3-0-----|---2-3-0-----o||
||--2-------5-4-|-2-------5-4-|-0-------3-2-|-0-------3-2--||


 Breakdown
  Slower Q=138
  (Gm)                                     G/C#
 4/4
                                    Gtr V
              >
|----------|------------|---------|----------|
|----------|------------|---------|----------|
|----------|------------|---------|--------6-|
|----------|------------|---------|--------5-|
|----------|------------|---------|----------|
|-3--------|-(3)--------|---------|--------3-|
|
|             >
|----------|------------|---------|----------|
|----------|------------|---------|----------|
|----------|------------|---------|----------|
|----------|------------|---------|----------|
|----------|------------|---------|----------|
|-6--------|-(6)--------|---------|----------|


   Lead harmony: Burkey
    G/C#                                                    Bb5
    Gtr V
||---------------------------|---------------------------------|
||o--------------------------|---------------------------------|
||---6-------------(6)-----6-|---6-------------------(6)----10-|
||---5-------------(5)-----5-|---5-------------------(5)-----8-|
||o--------------------------|---------------------------------|
||---3-------------(3)-----3-|---3-------------------(3)-----6-|
|
|   Gtr II
|              ~~~~              ~~~~~~~~~       ~~
||---------------------------|---------------------------------|
||o-18b20----(18)------------|---------------------------------|
||-----------------15-----15-|-(15)--(15)----------------------|
||---------------------17----|------------17-15-17--(17)p15s12-|
||o--------------------------|---------------------------------|
||---------------------------|---------------------------------|


                  Bb/E                           G/C#
|--------------------|------------------------------||
|--------------------|-----------------------------o||
|----10------(10)--9-|--9-----------------(9)----6--||
|-----8-------(8)--8-|--8-----------------(8)----5--||
|--------------------|-----------------------------o||
|-----6-------(6)--6-|--6-----------------(6)----3--||
|
|     ~~
|-----------------18-|-18b20--(18)--18-17-----------||
|--------------------|------------------------18---o||
|--------------------|------------------------------||
|-12s15------(15)----|------------------------------||
|--------------------|-----------------------------o||
|--------------------|------------------------------||


 Lead: Burkey
  N.C.
  Gtr IV
                    ~~                                                 ~~~~
|-15p10--------------------------------|----------------18-16b18-----(16)-----|
|-------12-----------------------------|-------------15-----------------------|
|----------12--------------------------|----------15--------------------------|
|-------------12-9---------------------|-------15-----------------------------|
|------------------10-----(10)\---1/---|-13h17--------------------------------|
|--------------------------------------|--------------------------------------|
|
| Gtrs I, II
|  PM------------------------------------------------------|
|--------------------------------------|--------------------------------------|
|--------------------------------------|--------------------------------------|
|--------------------------------------|----------------------------------6---|
|--------------------------------------|-------------------------6-7---8----8-|
|--5--------5-------5-------5----------|--8--------8--------8-----------------|
|-----3--3-----3-3----3-3-------3----3-|-----6--6-----6--6--------------------|


                                                        ~~~~~~~~~~~~~~~
|-15p10-------------13b15==(13)r---(13)b15r==(13)b15==(13)-(13)---(13)---(13)r--|
|-------12-11-------------------------------------------------------------------|
|-------------12p10-------------------------------------------------------------|
|-------------------------------------------------------------------------------|
|-------------------------------------------------------------------------------|
|-------------------------------------------------------------------------------|
|
|  PM------------------------------------------------------------------|
|-------------------------------------------------------------------------------|
|-------------------------------------------------------------------------------|
|-------------------------------------------------------------------------------|
|-------------------------------------------------------------------------------|
|--5--------5--------5----------------------------------5-----------------------|
|-----3--3-----3--3--------------3---------3--------------------3------3--------|


                                        ~~~~~~~~~~~~
|-----------------------------------13-16b18==(16)r(16)\-|
|------------------------------13------------------------|
|-------------------12h13h==15---------------------------|
|----------12-13-15--------------------------------------|
|-12-13-15-----------------------------------------------|
|--------------------------------------------------------|
|
|  PM---------------|
|--------------------------------------------------------|
|--------------------------------------------------------|
|-----------------------------------------------6--------|
|-------------------------6-------7-----8------------8---|
|--8--------8--------8-----------------------------------|
|-----6--6-----6--6--------------------------------------|


    PM|   PM|   PM|   PM|        PM|      PM|      PM|      PM|
|--------------------------|--------------------------------------|
|-8-----8-----8-----8------|-11-------11-------11-------11--------|
|---7-7---7-7---7-7---7-7/-|----10-10----10-10----10-10----10-10--|
|--------------------------|--------------------------------------|
|--------------------------|--------------------------------------|
|--------------------------|--------------------------------------|
|
| PM-------------------------------------------|
|--------------------------|--------------------------------------|
|--------------------------|--------------------------------------|
|--------------------------|--------------------------------6-----|
|--------------------------|-----------------------6--7--8-----8--|
|-5-----5-----5-----5------|--8--------8--------8-----------------|
|---3-3---3-3---3-3---3-3--|-----6--6-----6--6--------------------|


|-3-(3)-(3)-3-(3)-(3)-3-(3)-(3)-3-(3)s6-|-6-(6)-(6)-6-(6)-(6)-6-(6)-(6)---------||
|----3---3-----3---3-----3---3-----3s=6-|----6---6-----6---6-----6---6--6-(6)---||
|---------------------------------------|----------------------------------6----||
|---------------------------------------|-------------------------------------8-||
|---------------------------------------|---------------------------------------||
|---------------------------------------|---------------------------------------||
|
| PM----------------------------------------------------------|
|---------------------------------------|---------------------------------------||
|---------------------------------------|---------------------------------------||
|---------------------------------------|----------------------------------6----||
|---------------------------------------|------------------------6---7--8-----8-||
|-5---------5---------5---------5-------|-8---------8---------8-----------------||
|----3---3-----3---3-----3---3-----3--3-|----6---6-----6---6--------------------||


  N.C.
  Gtr I
|------------------------------|---------------------------------------|
|--8------8------8------8------|-11-------11-------11-------11---------|
|----6------6------6------6----|-----9--------9--------9--------9------|
|------5------5------5------5/-|--------8--------8--------8--------8---|
|------------------------------|---------------------------------------|
|------------------------------|---------------------------------------|
|
| Gtr II
|------------------------------|---------------------------------------|
|-11-----11-----11-----11------|-14-------14-------14-------14---------|
|----9------9------9------9----|----12-------12-------12-------12------|
|------8------8------8------8/-|-------11-------11-------11-------11---|
|------------------------------|---------------------------------------|
|------------------------------|---------------------------------------|


    N.C.
    Gtrs I, II
    PM------------------------------------|
||--------------------------|--------------------------||
||o-------------------------|-------------------------o||
||--------------------------|---------------------6----||
||--------------------------|---------------6-7-8---8--||
||o-5-----5-----5-----5-----|-8-----8-----8-----------o||
||----3-3---3-3---3-3---3-3-|---6-6---6-6--------------||


   Outro
    (Gm)
    Gtr I
    <                 <
          ~~~~~~~~          ~~~~~~~~
||------------------|-----------------|
||o-----------------|-----------------|
||------------------|-----------------|
||------------------|-----------------|
||o-----------------|-----------------|
||--3----(3)--(3)-3-|-3----(3)--(3)-6-|
|
|   Gtr II
|   <                 <
|         ~~~~~~~~          ~~~~~~~~
||------------------|-----------------|
||o-----------------|-----------------|
||------------------|-----------------|
||------------------|-----------------|
||o-----------------|-----------------|
||--6----(6)--(6)-6-|-6----(6)--(6)-9-|


                    1.                  2.
  (Bbm)                                 (Bbm)
  <                 <                   <
        ~~~~~~~~          ~~~~~~~~            ~~~
|-----------------|------------------||-------------||
|-----------------|-----------------o||-------------||
|-----------------|------------------||-------------||
|-----------------|------------------||-------------||
|-----------------|-----------------o||-------------||
|-6----(6)--(6)-6-|-6----(6)--(6)-3--||-6----(6)----||
|
| <                 <                   <
|       ~~~~~~~~          ~~~~~~~~            ~~~
|-----------------|------------------||-------------||
|-----------------|-----------------o||-------------||
|-----------------|------------------||-------------||
|-----------------|------------------||-------------||
|-----------------|-----------------o||-------------||
|-9----(9)--(9)-9-|-9----(9)--(9)-6--||-9----(9)----||


  Q=188
  N.C.
|-------------------|------------|------------|--------*|
|-------------------|------------|------------|--------*|
|-------------------|-------0----|-(0)--------|-(0)----*|
|-------------5--7--|-5--3--0----|-(0)--------|-(0)----*|
|---------5---------|------------|------------|--------*|
|---3---------------|------------|------------|--------*|
|
|-------------------|------------|------------|--------*|
|-------------------|------------|------------|--------*|
|-<12>--------7-----|------------|------------|--------*|
|-------<12>-----7--|-5----------|------------|--------*|
|-------------------|----5-------|------------|--------*|
|-------------------|-------3----|-(3)--------|-(3)----*|
Related for Mother Man tab