Song name
# A B C D E F G H I J K L M N O P Q R S T U V W X Y Z

Atheist - And The Psychic Saw tab

----------------------------------------------------------------------------
	              And the Psychic Saw - Atheist
----------------------------------------------------------------------------
Tabbed by: ImmaG_Baller
Email: Jacob_hudgins35@yahoo.com

Tuning: EADGBe

This is a pretty pimpin' song. I'm almost positive this the most accurate version on the site.

Intro:

Guitar 1
e|------------------------------------------------------------|
B|------------------------------------------------------------|
G|------------------------------------------------------------|
D|-------------------------------7--7-5-7--7-5-7--7-5-7-5-7-5-|
A|-5--5-3-5--5-3-5--5-3-5-3-5-3-------------------------------|
E|------------------------------------------------------------|

e|-----------------------------|
B|-----------------------------|
G|-7--7-5-7--7-5-7--7-5-7-5-7\-|
D|-----------------------------|
A|-----------------------------|
E|-----------------------------|

 |_________x2________|
e|-11----12----13----|-11----12----13---~~~-----------------|
B|-16b18-17b19-18b20-|-16b18-17b19-18b20~~~-----------20~~\-|
G|-------------------|--------------------------------18~~\-|
D|-------------------|--------------------------------------|
A|-------------------|--------------------------------------|
E|-------------------|--------------------------------------|


Guitar 2
e|-----------------------------------------------------------|
B|-----------------------------------------------------------|
G|-----------------------------------------------------------|
D|-3--3-2-3--3-2-3--3-2-3-2-3-2-3--3-2-3--3-2-3--3-2-3-2-3-2-|
A|-----------------------------------------------------------|
E|-----------------------------------------------------------|

e|-----------------------------|
B|-----------------------------|
G|-----------------------------|
D|-3--3-2-3--3-2-3--3-2-3-2-3\-|
A|-----------------------------|
E|-----------------------------|

e|---------------------------|
B|---------------------------|
G|---------------------------|
D|-3--4--5--3--4--5--3--4--5-|
A|-3--4--5--3--4--5--3--4--5-|
E|-1--2--3--1--2--3--1--2--3-|

 (0:07) Starts on the last G5 played by guitar 2
 |____x4_____|____x4_____|
e|-----------|-----------|
B|-----------|-----------|
G|---7-3h7p3-|---6-3h6p3-|
D|-5---------|-5---------|
A|-----------|-----------|
E|-----------|-----------|

 (0:12) Both guitars
 |___x4____|___x4____|
e|---------|---------|
B|---------|---------|
G|---7-7-3-|---6-6-3-|
D|-5-------|-5-------|
A|---------|---------|
E|---------|---------|

 Guitar 1 (0:18)
 |___x4____|___x4____|___x4____|___x4____|
e|---------|---------|---------|---------|
B|---------|---------|---------|---------|
G|---7-7-3-|---6-6-3-|---7-7-3-|---6-6-3-|
D|-5-------|-5-------|-5-------|-5-------|
A|---------|---------|---------|---------|
E|---------|---------|---------|---------|

 Guitar 2 (0:18)
 |___x4____|___x4____|___x4____|___x4____|
e|---------|---------|---------|---------|
B|---------|---------|---------|---------|
G|---------|---------|---------|---------|
D|---------|---------|---------|---------|
A|---5-5-1-|---4-4-1-|---5-5-1-|---4-4-1-|
E|-3-------|-3-------|-3-------|-3-------|



Solo (notes separated for easier reading) (0:29)
e|--------------------------------------------------|
B|----------------------------------------------15~-|
G|-12-12-12-12--12-12-12-12--12-12-12-12--12-12-----|
D|--------------------------------------------------|
A|--------------------------------------------------|
E|--------------------------------------------------|


e|-------------------------------------------------------------------------|
B|-------------------------------------------------------------------------|
G|-12-12-12--14-14-14--12-12--11-11-11-11--11-11-11-11--11-11-11-11--11-11-|
D|-------------------------------------------------------------------------|
A|-------------------------------------------------------------------------|
E|-------------------------------------------------------------------------|

e|-----14-14-14-14-/21-21-21-21-21~-|
B|-14~------------------------------|
G|----------------------------------|
D|----------------------------------|
A|----------------------------------|
E|----------------------------------|

 Solo Rhythm (0:29)
 |___x4____|___x4____|
e|---------|---------|
B|---------|---------|
G|---7-7-3-|---6-6-3-|
D|-5-------|-5-------|
A|---------|---------|
E|---------|---------|



Guitar 1 (0:33) (notes separated for easier reading)
 |_________x2__________|_________x2__________|
e|---------------------|---------------------|
B|---------------------|---------------------|
G|---------------------|---------------------|
D|---------------------|---------------------|
A|---------------------|---------------------|
E|-6666-6666-6666-6666-|-5555-5555-5555-5555-|

 |____x3_____|               |____x2_____|
e|-----------|---------------|-----------|-------------|
B|-----------|---------------|-----------|-------------|
G|-----------|---------------|-----------|-------------|
D|-8888-8888-|-888-101010-88-|-7777-7777-|-7777-77-----|
A|-----------|---------------|-----------|---------/7\-|
E|-----------|---------------|-----------|---------/7\-|

 Guitar 2 (0:33) (notes separated for easier reading)
 |_________x2__________|_________x2__________|
e|---------------------|---------------------|
B|---------------------|---------------------|
G|---------------------|---------------------|
D|---------------------|---------------------|
A|---------------------|---------------------|
E|-3333-3333-3333-3333-|-2222-2222-2222-2222-|

 |____x3_____|            |____x2_____|
e|-----------|------------|-----------|-------------|
B|-----------|------------|-----------|-------------|
G|-----------|------------|-----------|-------------|
D|-5555-5555-|-555-777-55-|-4444-4444-|-4444-44-----|
A|-----------|------------|-----------|---------/7\-|
E|-----------|------------|-----------|---------/7\-|



 Both Guitars (0:44)
|________x4________|
   . . . .
e|------------------|-----------|
B|------------------|-----------|
G|------------------|-----------|
D|---------0--2-1---|-------/5--| This note is played by guitar 1
A|----------------2-|-2-----/7--| This note is played by guitar 2
E|-0-0-3-0----------|-0---------|

 Both guitars (0:54)
 |_______x2_________|______x2______|______x2______|______x3_____|
e|------------------|--------------|--------------|-------------|
B|------------------|--------------|--------------|-------------|
G|------------------|--------------|--------------|-------------|
D|---------0--2-1---|-----0--2-1---|--------2-1---|----0--2-1---|
A|----------------2-|------------2-|------------2-|-----------2-|
E|-0-0-3-0----------|-3-0----------|-0--3-0-------|-3-----------|
   . . . .            . .            .  . .
 Both Guitars (1:03)
e|----------|
B|----------|
G|--------3-|
D|-2------3-|
A|-2------1-|
E|-0--------|



 Pimp Riff

 Guitar 1 (1:06)
e|-------------------------------------------------|
B|-------------------------------------------------|
G|-------------------------------------------------|
D|---5-6--6-5-6-8-6-5-6-5---5-6-5-6-5-6-8-6-5-6-5--|
A|-8----------------------8------------------------|
E|-------------------------------------------------|

e|----------------------------------------------------|
B|----------------------------------------------------|
G|----------------------------------------------------|
D|----7-8--8-7-8-10-8-7-8-7----7-8-7-8-7-8-10-8-7-8-7-|
A|-10-----------------------10------------------------|
E|----------------------------------------------------|

e|--------------------------------------------------------------------------|
B|----------------------------------------------------------------8---------|
G|----------------------------------------------------7-8-7-8-7-8---8-7-8-7-|
D|---6-7--7-6-7-9-7-6-7-6---6-7-6-7-6-7-9-7-6-7-6-/10-----------------------|
A|-9----------------------9-------------------------------------------------|
E|--------------------------------------------------------------------------|


 Guitar 2 (1:06)
e|------------------------------------------------|
B|------------------------------------------------|
G|------------------------------------------------|
D|---2-3--3-2-3-5-3-2-3-2---2-3-2-3-2-3-5-3-2-3-2-|
A|-5----------------------5-----------------------|
E|------------------------------------------------|

e|------------------------------------------------|
B|------------------------------------------------|
G|------------------------------------------------|
D|---4-5--5-4-5-7-5-4-5-4---4-5-4-5-4-5-7-5-4-5-4-|
A|-7----------------------7-----------------------|
E|------------------------------------------------|

e|-------------------------------------------------------------------------|
B|---------------------------------------------------------------5---------|
G|---------------------------------------------------4-5-4-5-4-5---5-4-5-4-|
D|---3-4--4-3-4-6-4-3-4-3---3-4-3-4-3-4-6-4-3-4-3-/7-----------------------|
A|-6----------------------6------------------------------------------------|
E|-------------------------------------------------------------------------|


 (1:27)
e|----------------------------------------------------------|
B|-6--------------------------------------------------------|
G|-5-----7---------------------7p6p4-----7p6p4-7p6p4------5-|
D|-3-----------7--6-----------------7p6p4-----------7p6p4-3-|
A|-----5---7-8-------8-7-5----------------------------------|
E|----------------------------------------------------------|

******** It sounds like one guitar plays this. There is a tension of notes heard on the 
third note of the bar below ********
e|------------------------|
B|------------------------|
G|---7--------------------|
D|---------7--6-----------|
A|-5---5-8-------8-7-5----|
E|------------------------|



(there's three parts to this harmony) Guitar 3 is hard to hear
 (1:32)
 |________Guitar 1________|______Guitar 2_____|__________Guitar 3__________|
e|------------------------|-------------------|----------------------------|
B|------------------------|-------------------|----15-17-14-16-13-16-13----|
G|---10-12-9-11-8-11-8----|---7-9-6-8-5-8-5---|-------------------------13-|
D|---------------------9--|-----------------6-|-12-------------------------|
A|-8----------------------|-5-----------------|----------------------------|
E|------------------------|-------------------|----------------------------|

 (1:35)
e|----------------------------------|
B|-7p6p4-----7p6p4-7p6p4------------|
G|------7p6p4-----------7p6p4--4----|
D|-----------------------------2--3-|
A|--------------------------------1-|
E|----------------------------------|

 Both Guitars (1:37)
e|--------------------------------------|
B|--------------------------8-7-----6---|
G|------------------------6-----5-----5-|
D|----------------------5---------4-----|
A|-2----2-2-2----2-2--------------------|
E|-0----0-0-0----0-0--------------------|
        . .      . .

Solo (1:42)
e|------------------------|
B|------------------------|
G|------------------------|
D|------------------------|
A|------------------------|
E|------------------------|

Solo Rhythm (1:42)
 |_________________x2___________________|                   |_____x4______|
e|--------------------------------------|-------------------|-------------|
B|--------------------------8-7-----6---|-------------------|-8-----7-----|
G|------------------------6-----5-----5-|-------------------|---7-----6---|
D|----------------------5---------4-----|-------------------|-----5-----4-|
A|-2----2-2-2----2-2--------------------|-2----2-2-2----2-2-|-------------|
E|-0----0-0-0----0-0--------------------|-0----0-0-0----0-0-|-------------|
        . .      . .                           . .      . .

 Both guitars (1:58)
 |_____________________x2______________________|
e|---------------------------------------------|
B|---------------------------------------------|
G|-7-------------3------3-4-5------------------|
D|-7------7\-5-3-3------3-4-5-4-----4--4--3--2-|
A|-5------5\-5-3-1------1-2-3-4-----4--4--3--2-|
E|-5------5\-3-1--------------2-----2--2--1--0-|
                                    .  .  .  .
 |________x3________|
e|------------------|---|
B|------------------|---|
G|-7----------------|-7-|
D|-7-----4--4--3--2-|-7-|
A|-5-----4--4--3--2-|-5-|
E|-5-----2--2--1--0-|-5-|
         .  .  .  .

 Guitar 1 (2:37)
 |_______x3________|
e|-----------------|----------------|
B|-----------------|----------------|
G|---------2-------|--------2-------|
D|-3-2-3-------2---|3-2-3-----5-3-2-|
A|-------5---3---3-|------5---------|
E|-----------------|----------------|


 Guitar 1 (2:41)
 |______________x2______________|
e|------------------------------|-----------------------|
B|------------------------------|-----------------------|
G|------------------------------|-------------------13~-|
D|------------------------------|-----------7--6--------|
A|-5--5-3-5--5-3-5--5-3-5-3-5-3-|-5----/8---------------|
E|------------------------------|-----------------------|

Guitar 2 (2:41)
 |______________x4______________|
e|------------------------------|
B|------------------------------|
G|------------------------------|
D|------------------------------|
A|-5--5-3-5--5-3-5--5-3-5-3-5-3-|
E|------------------------------|



 Guitar 1 (2:48)
 |______________x2______________|
e|------------------------------|------------------------|
B|------------------------------|------------------------|
G|------------------------------|--------------------13~-|
D|-3--3-2-3--3-2-3--3-2-3-2-3-2-|-----------7---6--------|
A|------------------------------|-5----/8----------------|
E|------------------------------|------------------------|

 Guitar 2 (2:48)
 |______________x4______________|
e|------------------------------|
B|------------------------------|
G|------------------------------|
D|------------------------------|
A|-5--5-3-5--5-3-5--5-3-5-3-5-3-|
E|------------------------------|

 Guitar 1 (2:57)
|_______________x2______________|
e|------------------------------|------------------------|
B|------------------------------|------------------------|
G|------------------------------|--------------------16~-|
D|------------------------------|-----------10--9--------|
A|-8--8-7-8--8-7-8--8-7-8-7-8-7-|-8----/12---------------|
E|------------------------------|------------------------|

 Guitar 2 (2:57)
 |______________x2______________|
e|------------------------------|------------------------|
B|------------------------------|------------------------|
G|------------------------------|--------------------13~-|
D|------------------------------|-----------8---7--------|
A|-5--5-3-5--5-3-5--5-3-5-3-5-3-|-5----/8----------------|
E|------------------------------|------------------------|

 Guitar 1 (3:06)
e|------------------------------------------------------------|
B|------------------------------------------------------------|
G|--------------------------------------------/9--9-8-9-8-9-8-|
D|------------------------------3--3-2-3--3-2-----------------|
A|-5--5-3-5--5-3-5--5-3-5-3-5-3-------------------------------|
E|------------------------------------------------------------|


                               e|--------------------------|
                               B|--------------------------|
                               G|--------------------------|
                               D|-----------10--9----------|
                               A|-8----/12------------8--7-|
                               E|--------------------------|
 Guitar 2 (3:06)
 |_____________x2_______________|
e|------------------------------|--------------------------|
B|------------------------------|--------------------------|
G|------------------------------|--------------------------|
D|------------------------------|-----------7---6----------|
A|-5--5-3-5--5-3-5--5-3-5-3-5-3-|-5----/8-------------5--4-|
E|------------------------------|--------------------------|

 Guitar 1&2 (3:17)
e|-------|-------|
B|-------|-------|
G|-------|-------|
D|-------|-------|
A|-------|-------|
E|-3b3.5-|-6b6.5-|

 Both Guitars (3:18) (notes separated for easier reading)
e|----------|---------------------------------------------------------|
B|----------|---------------------------------------------------------|
G|----------|---------------------------------------------------------|
D|----------|-7----------------7----------------7----------------7----|
A|-2----2-2-|-5--6-----------7-5--6------2----7-5--6-----------7-5--6-|
E|-0----0-0-|----4-0000-0000-5----4-0000-0-00-5----4-0000-0000-5----4-|
                   .... ....        ....   ..        .... ....
e|----------------|
B|----------------|
G|----------------|
D|-----------3----|
A|------2----1--2-|
E|-0000-0--0----0-|
   ....    .

 |_______x2________|
e|-----------------|
B|-----------------|
G|-----------------|
D|-----------------|
A|-------3-------1-|
E|-0-2-3---0-2-3---|


 Guitar 1 (3:35)
|________________x6_______________|
e|--------------------------------|
B|--------------------------------|
G|--------------------------------|
D|-/7-6-----------4---------------|
A|------7-6---5-7---5---7-6-3-4-5-|
E|----------5---------7-5-4-1-2-3-|
                        . . . . .


Guitar 2 (3:35)
|________________x2_______________|
e|--------------------------------|
B|--------------------------------|
G|--------------------------------|
D|--------------------------------|
A|----------------------7-6-3-4-5-|
E|----------------------5-4-1-2-3-|
                        . . . . .

|________________x2_______________|
e|--------------------------------|
B|--------------------------------|
G|--------------------------------|
D|----------------------7-6-3-4-5-|
A|--------------------------------|
E|--------------------------------|

|________________x2_______________|
e|--------------------------------|
B|--------------------------------|
G|--------------------------------|
D|-/7-6-----------4---------------|
A|------7-6---5-7---5---7-6-3-4-5-|
E|----------5---------7-5-4-1-2-3-|
                        . . . . .



 Both guitars (3:51)
e|--------------------------------------------|
B|--------------------------------------------|
G|--------------------------------------------|
D|-/7-6-----------4---------------------------|
A|------7-6---5-7---5---7-6-3-4-5-3-4-5-3-4-5-|
E|----------5---------7-5-4-1-2-3-1-2-3-1-2-3-|
                        . . . . . . . . . . .

 (3:55) First note starts the last G5
 |___x4____|
e|---------|
B|---------|
G|---7-7-3-|
D|-5-------|
A|---------|
E|---------|

 Guitar 1 (3:58)
 |___x4____|____x4___|____x4_____|____x4___|
e|---------|---------|-----------|---------|
B|---------|---------|-----------|---------|
G|---7-7-3-|---6-6-3-|-0-10-10-6-|-0-9-9-6-|
D|-5-------|-5-------|-----------|---------|
A|---------|---------|-----------|---------|
E|---------|---------|-----------|---------|


 Guitar 2 (3:58)
 |___x4____|___x4____|___x4____|___x4____|
e|---------|---------|---------|---------|
B|---------|---------|---------|---------|
G|---------|---------|---------|---------|
D|---------|---------|---------|---------|
A|---5-5-1-|---4-4-1-|---5-5-1-|---4-4-1-|
E|-3-------|-3-------|-3-------|-3-------|


 Guitar 1 (4:09) (Notes separated for easier reading)
 |_________x2__________|_________x2__________|
e|---------------------|---------------------|
B|---------------------|---------------------|
G|---------------------|---------------------|
D|---------------------|---------------------|
A|---------------------|---------------------|
E|-6666-6666-6666-6666-|-5555-5555-5555-5555-|

 |____x3_____|               |____x2_____|
e|-----------|---------------|-----------|---------------------|
B|-----------|---------------|-----------|---------------------|
G|-----------|---------------|-----------|---------------------|
D|-8888-8888-|-888-101010-88-|-7777-7777-|---------------------|
A|-----------|---------------|-----------|-8888-8888-7777-7777-|
E|-----------|---------------|-----------|---------------------|


Guitar 2 (4:09) (notes separated for easier reading)
 |_________x2__________|_________x2__________|
e|---------------------|---------------------|
B|---------------------|---------------------|
G|---------------------|---------------------|
D|---------------------|---------------------|
A|---------------------|---------------------|
E|-2222-2222-2222-2222-|-1111-1111-1111-1111-|

 |____x3_____|            |____x2_____|
e|-----------|------------|-----------|---------------------|
B|-----------|------------|-----------|---------------------|
G|-----------|------------|-----------|---------------------|
D|-----------|------------|-----------|---------------------|
A|-----------|------------|-----------|-5555-5555-3333-3333-|
E|-2222-2222-|-222-444-22-|-1111-1111-|---------------------|


 Both Guitars (4:19)
 |________x4________|
e|------------------|
B|------------------|
G|-7----------------|
D|-7-----4--4--3--2-|
A|-5-----4--4--3--2-|
E|-5-----2--2--1--0-|
         .  .  .  .





************************************
| .   palm mute
| []  pinch harmonic
| /   slide up
| \   slide down
| h   hammer-on
| p   pull-off
| ~   vibrato
| +   harmonic
| x   Mute note
| b   Bend
| pb  Pre-bend
| br  Bend release
| pbr Pre-bend release
| brb Bend release bend

************************************
Tap to rate this tab
 
# A B C D E F G H I J K L M N O P Q R S T U V W X Y Z