Atheist - An Incarnations Dream tab

ATHEIST - An Incarnations Dream (Acoustic Intro)


E |--------------0-------------|----------------------------|
B |-----3-----------3----------|-----3-----------3----------|
G |--------4-----------4-------|--------4-----------4-------|
D |-----------------------4----|-----------4----------------|
A |--2--------2----------------|--2-------------------------|
E |----------------------------|--------------3-------------|


--------------0-------------|--------------0-------------|
-----0-----------0----------|-----0-----------0----------|
--------2-----------2-------|--------2-------------------|
-----------------------2----|----------------------------|
--0--------0----------------|--0--------0--------0h-2----|
----------------------------|----------------------------|


-----------------0----------|--2--------------0----------|
--------1-----------1-------|--------3-----------3-------|
-----------0----------------|-----------2----------------|
----------------------------|--0-----------0-------------|
--3-----------3-------------|----------------------------|
----------------------------|----------------------------|


-----------------0----------|----------------------------|
--------3-----------3-------|-----3-----------3----------|
-----------4-----------4----|--------4-----------4-------|
----------------------------|-----------4----------------|
--2-----------2-------------|--2-------------------------|
----------------------------|--------------1-------------|


--------------0-------------|----------------------------|
-----3-----------3----------|-----3-----------3----------|
--------4-----------4-------|--------4-----------4-------|
-----------------------4----|-----------4----------------|
--2--------2----------------|--2-------------------------|
----------------------------|--------------3-------------|


--------------0-------------|--------------0-------------|
-----0-----------0----------|-----0-----------0----------|
--------2-----------2-------|--------2-------------------|
-----------------------2----|----------------------------|
--0--------0----------------|--0--------0--------0h-2----|
----------------------------|----------------------------|


-----------------0----------|--2--------------0----------|
--------1-----------1-------|--------3-----------3-------|
-----------0----------------|-----------2----------------|
----------------------------|--0-----------0-------------|
--3-----------3-------------|----------------------------|
----------------------------|----------------------------|


-----------------0----------|----------------------------|
--------3-----------3-------|-----3-----------3----------|
-----------4-----------4----|--------4-----------4-------|
----------------------------|-----------4----------------|
--2-----------2-------------|--2-------------------------|
----------------------------|--------------1-------------|


-----------------0----------|----------------------------|
--------3-----------3-------|-----3----------------------|
-----------4-----------4----|--------4-------------------|
----------------------------|-----------4----------------|
--2-----------2-------------|--2-------------------------|
----------------------------|--------------1-------------|


----------------------------|----------------------------|
-----3--------3--------3----|-----3--------3--------3----|
--------4--------4-----4----|--------4--------4-----4----|
----------------------------|----------------------------|
--2--------0----------------|--2--------0----------------|
--------------------3-------|--------------------1-------|


----------------------------|----------------------------|
-----3--------3--------3----|-----3--------3--------3----|
--------4--------4-----4----|--------4--------4-----4----|
----------------------------|----------------------------|
--2--------0----------------|--2--------0----------------|
--------------------3-------|--------------------0-------|


----------------------------|----------------------------|
-----6--------6--------6----|-----6--------6--------6----|
--------7--------7-----7----|--------7--------7-----6----|
----------------------------|----------------------------|
--5--------4--------4-------|----------------------------|
----------------------------|--6--------5--------5-------|


----------------------------|----------------------------|
-----6--------6--------6----|-----6--------6--------6----|
--------7--------7-----7----|--------7--------7-----6----|
----------------------------|----------------------------|
--5--------4--------4-------|----------------------------|
----------------------------|--6--------5--------5-------|


----------------------------|----------------------------|
-----3--------3--------3----|-----3--------3--------3----|
--------4--------4-----4----|--------4--------4-----4----|
----------------------------|----------------------------|
--2--------0----------------|--2--------0----------------|
--------------------3-------|--------------------1-------|


----------------------------|----------------------------|
-----3--------3--------3----|-----3--------3--------3----|
--------4--------4-----4----|--------4--------4-----4----|
----------------------------|----------------------------|
--2--------0----------------|--2--------0----------------|
--------------------3-------|--------------------0-------|


----------------------------|----------------------------|
-----6--------6--------6----|-----6--------6--------6----|
--------7--------7-----7----|--------7--------7-----6----|
----------------------------|----------------------------|
--5--------4--------4-------|----------------------------|
----------------------------|--6--------5--------5-------|


----------------------------|----------------------------||
-----6--------6--------6----|-----6----------------------||
--------7--------7-----7----|--------6--2----------------||
----------------------------|-----------3----------------||
--5--------4--------4-------|-----------0----------------||
----------------------------|--6-------------------------||
Tap to rate this tab
 
# A B C D E F G H I J K L M N O P Q R S T U V W X Y Z