Song name
# A B C D E F G H I J K L M N O P Q R S T U V W X Y Z

Athenaeum - Sweeter Love tab

Taken mostly from a live performance seen on Youtube.

Sorry if my tabs are hard to understand.

INTRO:

e|--------------------------------|
B|--------------------------------|
G|------7-9-9b-7---------12-10--9-|
D|----7----------7h8-8-8----------|
A|--5-----------------------------|
E|--------------------------------|

e|-----------------------------------------|
B|-----------------------------------------|
G|------7-9-9b-7---------12-10--10----10-9-|
D|----7----------7h8-8-8-----------12------|
A|--5--------------------------------------|
E|-----------------------------------------|

e|--------------------------------|-------------------|
B|--------------------------------|-------------------|
G|------7-9-9b-7---------12-10----|-------------------|
D|----7----------7h8-8-8----------|-77777777-77777777-|
A|--5-----------------------------|-00000000-00000000-|
E|--------------------------------|-------------------|

e|---------------------------------------------------------------------|
B|-15-17-17b-15-------20-18--17----------------------------------------|
G|--------------14-15--------------------------------------------------|
D|--------------------------------14-15-17-15-14-------17-15-14h15p14--|
A|-----------------------------------------------15-13-----------------|
E|---------------------------------------------------------------------|

                                           ~~~~~~~~~~~~~~~~~~~~~~~~~~~
e|--------------------------------15-15h17-17-17-17-17-17-17-15-17b-15-|
B|-15-17-17b-15-------20-18--17----------------------------------------|
G|--------------14-15--------------------------------------------------|
D|---------------------------------------------------------------------|
A|---------------------------------------------------------------------|
E|---------------------------------------------------------------------|






VERSE 1:

(     d  g  C   F  d  g  F  D# d  ?  ?      )
(  e|------------------------------------|  )
(  B|-----------------------------6--10--|  )
(  G|-----------------------------5--9---|  )  <- Chords used in verse
(  D|-0--5--10--3--0--5--3--1--0---------|  )
(  A|-0--5--10--3--0--5--3--1--0---------|  )
(  E|------------------------------------|  )

d                   g
I do not believe in fairy tales

C                        F
   I have bit off all my fingernails

d                          g
   I will never wash these sheets again

    F                 D#               d       ?       ?
You know the ones you left me in






CHORUS:

(     D# F  A#  D# c  F  A#  D# c  F         )
(  e|-------------------------------------|  )
(  B|-------------------------------------|  )
(  G|--------------5------------5---------|  )  <- Chords used in chorus
(  D|-1--3--8---1--5--3--8---1--5--3------|  )
(  A|-1--3--8---1--3--3--8---1--3--3------|  )
(  E|-------6------------6----------------|  )

                   D#
There's no sweeter love

                   F
There's no sweeter love

                   A#        D#
There's no sweeter love than mine

                   C
There's no sweeter love

                         F
So what are you thinking of?

           A#                D#
There's no sweeter love than mine

              C           F
And if you disagree-e-e-e-e-e


Set me free






VERSE 2:

(     g  C   F  D#  g  C   A# D        )
(  e|-------------------------------|  )
(  B|-------------------------------|  )
(  G|-------------------------------|  )  <- Chords used in verse
(  D|-5--10--3--1---5--10--8--------|  )
(  A|-5--10--3--1---5--10--8--5-----|  )
(  E|----------------------6--5-----|  )

g                       C
   I did not believe in self defense

F                               D#
   'Till you crushed me like an ornament

g                          C
   When you hung me from your kissing tree

    A#
You flaunted me

    D
You f****d with me





CHORUS:

(     D# F  A#  D# c  F  A#  D# c  D         )
(  e|-------------------------------------|  )
(  B|-------------------------------------|  )
(  G|--------------5------------5---------|  )  <- Chords used in chorus
(  D|-1--3--8---1--5--3--8---1--5---------|  )
(  A|-1--3--8---1--3--3--8---1--3--5------|  )
(  E|-------6------------6---------5------|  )

                   D#
There's no sweeter love

                   F
There's no sweeter love

                   A#        D#
There's no sweeter love than mine

                   C
There's no sweeter love

                         F
So what are you thinking of?

           A#                D#
There's no sweeter love than mine

              C           D
And if you disagree-e-e-e-e-e


Set me free


If you disagree
Set me free



e|---------------------------------------------------------------------|
B|---------------------------------------------------------------------|
G|-------------------------------------------------14-15-15-15-15-15---|
D|------------------------------------15-14--15-17---------------------|
A|--15b-15-13----13---15b-13----13-15----------------------------------|
E|------------15-------------15----------------------------------------|

e|---------------------------------------------------------------------|
B|---------------------------------------------------------------------|
G|--15-15-15-15-15--17b-14---------------------------------------------|
D|---------------------------------------------------------------------|
A|---------------------------------------------------------------------|
E|---------------------------------------------------------------------|

e|---------------------------------------------------------------------|
B|-15-17-17b-15-------20-18--17----------------------------------------|
G|--------------14-15--------------------------------------------------|
D|--------------------------------14-15-17-15-14-------17-15-14h15p14--|
A|-----------------------------------------------15-13-----------------|
E|---------------------------------------------------------------------|

                                           ~~~~~~~~~~~~~~~~~~~~~~~~~~~
e|--------------------------------15-15h17-17-17-17-17-17-17-15-17b-15-|
B|-15-17-17b-15-------20-18--17----------------------------------------|
G|--------------14-15--------------------------------------------------|
D|---------------------------------------------------------------------|
A|---------------------------------------------------------------------|
E|---------------------------------------------------------------------|
Tap to rate this tab
 
# A B C D E F G H I J K L M N O P Q R S T U V W X Y Z