Song name
# A B C D E F G H I J K L M N O P Q R S T U V W X Y Z

Athenaeum - Sweeter Love tab

Athenaeum - Sweeter Love

Tabbed by Brian (tolledesign@yahoo.com)
---------------------------------------------------------------------------

Tuning: Drop D

INTRO:

e|--------------------------------|
B|--------------------------------|
G|------7-9-9b-7---------12-10--9-|
D|----7----------7h8-8-8----------|
A|--5-----------------------------|
D|--0-----------------------------|

e|-----------------------------------------|
B|-----------------------------------------|
G|------7-9-9b-7---------12-10--10----10-9-|
D|----7----------7h8-8-8-----------12------|
A|--5--------------------------------------|
D|--0--------------------------------------|

e|--------------------------------|-------------------|
B|--------------------------------|-------------------|
G|------7-9-9b-7---------12-10----|-------------------|
D|----7----------7h8-8-8----------|-77777777-77777777-|
A|--5-----------------------------|-00000000-00000000-|
D|--0-----------------------------|-------------------|

e|---------------------------------------------------------------------|
B|-15-17-17b-15-------20-18--17----------------------------------------|
G|--------------14-15--------------------------------------------------|
D|--------------------------------14-15-17-15-14-------17-15-14h15p14--|
A|-----------------------------------------------15-13-----------------|
D|---------------------------------------------------------------------|

                                           ~~~~~~~~~~~~~~~~~~~~~~~~~~~
e|--------------------------------15-15h17-17-17-17-17-17-17-15-17b-15-|
B|-15-17-17b-15-------20-18--17----------------------------------------|
G|--------------14-15--------------------------------------------------|
D|---------------------------------------------------------------------|
A|---------------------------------------------------------------------|
D|---------------------------------------------------------------------|


INTRO Chords: Dm-Gm-C-Gm-A(note)-Dm
              Dm-Gm-F-Eb


VERSE 1:

(     Dm Gm  C  F  Dm Gm F  Eb D  ?  ?      )
(  e|-1--3------------3------------------|  )
(  B|-3--3------------3-----------6--10--|  )
(  G|-2--3------------3-----------5--9---|  )  <- Chords used in verse
(  D|-0--5--10--3--0--5--3--1--0---------|  )
(  A|-0--5--10--3--0--5--3--1--0---------|  )
(  D|-0-----10-----------3--1-----0--0---|  )

Dm                   Gm
I do not believe in fairy tales

C                        F          A(note)
   I have bit off all my fingernails

Dm                          Gm
   I will never wash these sheets again

    F                 Eb               D       ?       ?
You know the ones you left me in






CHORUS:

(     Eb F  Bb  D# Cm  F Bb  Eb Cm  F         )
(  e|--------------3------------3---------|  )
(  B|--------------4------------4---------|  )
(  G|--------------5------------5---------|  )  <- Chords used in chorus
(  D|-1--3--8---1--5--3--8---1--5--3------|  )
(  A|-1--3--8---1--3--3--8---1--3--3------|  )
(  D|-1--3--8---------3--8---1-----3------|  )

                   Eb
There's no sweeter love

                   F
There's no sweeter love

                   Bb   D     Eb
There's no sweeter love than mine

                   Cm
There's no sweeter love

                         F
So what are you thinking of?

           Bb           D     Eb
There's no sweeter love than mine

              Cm           F
And if you disagree-e-e-e-e-e


Set me free






VERSE 2:

(     Gm Cm  F  Eb  Gm Cm  Bb D        )
(  e|-3-------------3---------------|  )
(  B|-3-------------3---------------|  )
(  G|-3--8----------3--8------------|  )  <- Chords used in verse
(  D|-5--10--3--1---5--10--8--0-----|  )
(  A|-5--10--3--1---5--10--8--0-----|  )
(  E|----10--3--1------10--8--0-----|  )

Gm                       Cm
   I did not believe in self defense

F                               Eb      D
   'Till you crushed me like an ornament

Gm                          Cm
   When you hung me from your kissing tree

    Bb
You flaunted me

    D
You f****d with me





CHORUS:

(     Eb F  Bb  Eb C  F  Bb  Eb C  D         )
(  e|-------------------------------------|  )
(  B|-------------------------------------|  )
(  G|--------------5------------5---------|  )  <- Chords used in chorus
(  D|-1--3--8---1--5--3--8---1--5--0------|  )
(  A|-1--3--8---1--3--3--8---1--3--0------|  )
(  D|-1--3--8---1-----3--8---1-----0------|  )

                   Eb
There's no sweeter love

                   F
There's no sweeter love

                   Bb   D     Eb
There's no sweeter love than mine

                   Cm
There's no sweeter love

                         F
So what are you thinking of?

           Bb      D         Eb
There's no sweeter love than mine

              C           D
And if you disagree-e-e-e-e-e


Set me free

Gm-C-Bb-A

If you disagree
Set me free

Dm-Gm-C-Gm-A
Dm-Gm-F-Bb-Dm



e|---------------------------------------------------------------------|
B|---------------------------------------------------------------------|
G|-------------------------------------------------14-15-15-15-15-15---|
D|------------------------------------15-14--15-17---------------------|
A|--15b-15-13----13---15b-13----13-15----------------------------------|
D|------------17-------------17----------------------------------------|

e|---------------------------------------------------------------------|
B|---------------------------------------------------------------------|
G|--15-15-15-15-15--17b-14---------------------------------------------|
D|---------------------------------------------------------------------|
A|---------------------------------------------------------------------|
D|---------------------------------------------------------------------|

e|---------------------------------------------------------------------|
B|-15-17-17b-15-------20-18--17----------------------------------------|
G|--------------14-15--------------------------------------------------|
D|--------------------------------14-15-17-15-14-------17-15-14h15p14--|
A|-----------------------------------------------15-13-----------------|
D|---------------------------------------------------------------------|

                                           ~~~~~~~~~~~~~~~~~~~~~~~~~~~
e|--------------------------------15-15h17-17-17-17-17-17-17-15-17b-15-|
B|-15-17-17b-15-------20-18--17----------------------------------------|
G|--------------14-15--------------------------------------------------|
D|---------------------------------------------------------------------|
A|---------------------------------------------------------------------|
D|---------------------------------------------------------------------|



ENJOY!
Tap to rate this tab
 
# A B C D E F G H I J K L M N O P Q R S T U V W X Y Z