Guitaretab - guitar tabs
Song name
# A B C D E F G H I J K L M N O P Q R S T U V W X Y Z

Athenaeum - What I Didn Know tab

ei, dude!! this is my first tab...
It's pretty close for me...
I like this band, their songs are great!!!
Hope you'll like it!
                         -=CharterRockz=-


Standard tuning

E------------------------------------2h3---3---------------------|
B---------------------------------4------4-----------------------|
G-----------------------1--4-1-----------------------------------|
D--1--4-4----1--4-4----------------------------------------------|
A----------------------------------------------------------------|
E----------------------------------------------------------------|
[ Tab from: http://www.guitaretab.com/a/athenaeum/51991.html ]
E----------------------------------------------------------------|
B----2----2h3---3----------5-5--4-4--2-2-------------------------|
G--4---4------4-----4--1-----------------------------------------|
D----------------------------------------------------------------|
A----------------------------------------------------------------|
E----------------------------------------------------------------|

E----------------------------------------------------------------|
B----------------------------------------------------------------|
G--4--1-1---------4-1--------------------------------------------|
D----------1-4---------4-4--1-4----------------------------------|
A----------------------------------------------------------------|
E----------------------------------------------------------------|

E----------------------------------------------------------------|
B---------------------------------2-3-2--------------------------|
G--4-1------4--1-4----1-4----1-4--------1-4----------------------|
D-------4h6------------------------------------------------------|
A----------------------------------------------------------------|
E----------------------------------------------------------------|

email me: fresh_jc@yahoo.com
Rock On!!!!
Related for What I Didn Know tab