Song name
# A B C D E F G H I J K L M N O P Q R S T U V W X Y Z

Athlete - El Salvador tab

Help us improve GuitareTab! Take a short survey!
-------------------------------------------------------------------------------
			     El Salvador - Athlete
-------------------------------------------------------------------------------
Tabbed by: max
Email: flammadiddle@hotmail.co.uk

Tuning:Standard EADGBE

e|---------------------------------------------------------------------------|
B|-------------------3-------------------------------------------------------|
G|-------------------2-------------------------------------------------------|
D|---------0---/3-3---3----------0---/3--------------------------------------|
A|--3/5----------------------3/5---------------------------------------------|
E|---------------------------------------------------------------------------|

e|---------------------------------------------------------------------------|
B|-------------------3-------------------------------------------------------|
G|-------------------2-------------------------------------------------------|
D|---------0---/3-3---3----------0---/3--------------------------------------|
A|--3/5------------------------5---------------------------------------------|
E|---------------------------------------------------------------------------|

e|---------------------------------------------------------------------------|
B|-------------------3-------------------------------------------------------|
G|-------------------2-------------------------------------------------------|
D|---------0---/3-3---3----------0---/3--------------------------------------|
A|--3/5------------------------5---------------------------------------------|
E|---------------------------------------------------------------------------|

e|---------------------------------------------------------------------------|
B|-------------------3-------------------------------------------------------|
G|-------------------2-------------------------------------------------------|
D|---------0---/3-3---3----------0---/3--------------------------------------|
A|--3/5------------------------5---------------------------------------------|
E|---------------------------------------------------------------------------|
Related for El Salvador tab