Song name
# A B C D E F G H I J K L M N O P Q R S T U V W X Y Z

Athlete - 24 Hours tab

----------------------------------------------------------------------------
			     SONG NAME - Band Name
----------------------------------------------------------------------------
Tabbed by:Jamie
Email:jamiejwilson@hotmail.com

Tuning:standard

Intro and Verse  (people rushing left to right)

e|-----6-------------6-----------------6--------------6--------------------|
B|-----------6--------------6----------------8---------------8-------------|
G|-------7-----7--------7-----7-----------7------7-------7--------7--------|
D|-------------------------------------------------------------------------|
A|-------------------------------------------------------------------------|
E|-------------------------------------------------------------------------|

e|-----8----------8-----------8------------10-------------8---------------|
B|---------10---------10-----------10-------------10-------------------|
G|-------------------------------------------------------------------------|
D|-------------------------------------------------------------------------|
A|-------------------------------------------------------------------------|
E|-------------------------------------------------------------------------|

Bridge (one strum) (and its caught white screens...)

e|--6---------1--------6------------6-6-6-6--------------------------------|
B|--6---------1--------8------------8-8-8-8--------------------------------|
G|--7---------2--------8------------8-8-8-8-------------------------------|
D|--8---------3--------8------------8-8-8-8--------------------------------|
A|--8---------3--------6------------6-6-6-6------------------------------|
E|--6---------1--------x------------x--------------------------------------|

Chorus (one strum) (closing in, we still got 24 hours)

e|--6--------6------10-----8-----------------------------------------------|
B|--6--------8------11-----10----------------------------------------------|
G|--7--------8------12-----10----------------------------------------------|
D|--8--------8------12-----10----------------------------------------------|
A|--8--------6------10-----8-----------------------------------------------|
E|--6--------x------x------x-----------------------------------------------|

Solo

e|--11-11-10-10-8-8-6-6---11-11-10-10-8-8-10-10---11-11-10-10-8-8-6-6------|
B|-------------------------------------------------------------------------|
G|-------------------------------------------------------------------------|
D|-------------------------------------------------------------------------|
A|-------------------------------------------------------------------------|
E|-------------------------------------------------------------------------|

e|--11-11-10-10-8-8-10-10-------------------------------------------------|
B|--------------------------10-10-10-11-11-13-13-15-15---------------------|
G|-------------------------------------------------------------------------|
D|-------------------------------------------------------------------------|
A|-------------------------------------------------------------------------|
E|-------------------------------------------------------------------------|


Intro 
Verse x2
Bridge
Chorus x2
Intro
Verse x2
Bridge
Chorus x2
Solo
Chorus till the end with different lyrics
Tap to rate this tab
# A B C D E F G H I J K L M N O P Q R S T U V W X Y Z