Song name
# A B C D E F G H I J K L M N O P Q R S T U V W X Y Z

Athlete - I Love tab

------------------------------------------------------------------------------
                                 I LOVE - Athlete
------------------------------------------------------------------------------
Tabbed by: Luis Felipe Battaglin
E-mail: pipebattaglin@gmail.com

Tuning: Standard

intro and almost every part of the song:

e|-----------------------------------------------------|
B|-----------------------------------------------------|
G|------13---------13--------13---------16--------16\--|
D|---14---------14--------14---------14--------14------|
A|-----------------------------------------------------|
E|-12--------12--------12---------12--------12---------|

e|-------------------------------------|
B|-------------------------------------|
G|------6------6------8------9-----9/--| (4x)
D|----7------7------7------7-----7-----|
A|-------------------------------------|
E|-5-------5------5------5-----5-------|

for "i love everybody here..." and "there's so much left to say..." part:

e|--------------------------------------------------------------------------------|
B|--------------------------------------------------------------------------------|
G|-------13--------13-----------8------8------------6------6------6-----6--6\-8---| (2x) and (4x)
D|----14--------14------------9------9------------7------7------7-----7----7\-9---|
A|--------------------------------------------------------------------------------|
E|-12--------12--------12\--7------7------7\----5------5------5------5-----5\-7---|

"people for miles..." part:

e|------------------------------------|
B|------------------------------------|
G|-----9-------8---------5---------6--|  (2x)
D|---9-------9---------6---------7----|
A|-7----------------------------------|
E|---------7---------4---------5------|

e|--------------------------------------------------------------------------|
B|--------------------------------------------------------------------------|
G|-----9-------8------------6-------------8--------------6--------------8---|  
D|---9-------9------------7---7---------9---9----------7---7----------9---9-|
A|-7------------------------------------------------------------------------|
E|---------7--------5-(5)------5--7-(7)-------7--5-(5)-------5--7-(7)------ |



This is my first tab, so i hope it helps



Rate please ;)




************************************

| /   slide up
| \   slide down

************************************
Tap to rate this tab
# A B C D E F G H I J K L M N O P Q R S T U V W X Y Z