Song name
# A B C D E F G H I J K L M N O P Q R S T U V W X Y Z

Athlete - Rubiks Cube Acoustic tab

These are just a couple ways to play the intro on the guitar.

e|--0--------3--1--0--0--------3--1--0--0--------3--1--0----------|
B|-----3--1--------------3--1--------------3--1-----------1-------|
G|----------------------------------------------------------------|
D|----------------------------------------------------------------|
A|----------------------------------------------------------------|
E|----------------------------------------------------------------|

OR...

e|------------3--1--0------------3--1--0------------3--1--0-------|
B|---5--3--1--3---------5--3--1--3---------5--3--1--3--------1----|
G|---5-----0------------5-----0------------5-----0-----------0----|
D|----------------------------------------------------------------|
A|----------------------------------------------------------------|
E|----------------------------------------------------------------|
Tap to rate this tab
 
# A B C D E F G H I J K L M N O P Q R S T U V W X Y Z