Song name
# A B C D E F G H I J K L M N O P Q R S T U V W X Y Z

Athlete - You Got The Style tab

Band: Athlete
Song: You Got the Style
Album: Vehicles and Animals
Tabbed by Zep8001

Enjoy!

Verse                                                          Repeatx3

e---9---9---9--9--9--9---9---9---9--9--9--7--7--7--7-7-7-7--7--7-----7---|
B---10--10--10-10-10-10--10--10--10-10-10-9--9--9--9-9-9-9--9--9--10-9---|
G---11--11--11-11-11-11--11--11--11-11-11-9--9--9--9-9-9-9--9--9--9--9---|
D------------------------------------------------------------------------|
A------------------------------------------------------------------------|
E------------------------------------------------------------------------|


                                                     let ring   

e---9---9---9--9--9--9---9---9---9--9--9--7--7---------7--------7-7---7--|
B---10--10--10-10-10-10--10--10--10-10-10-9--9---------9----7-7-------7--|
G------------------------------------------------------9--9---------9----|
D------------------------------------------------------------------------|
A------------------------------------------------------------------------|
E------------------------------------------------------------------------|

Quiet Chorus                                  Repeat x1
e--------9-----------9--------------7---------------------|
B------10-----------9--------------7----------------------|
G-----9------------9--------------7-----------------------|
D---11------------9--------------7------------------------|
A--12-----------11--------------9-------------------------|
E---------------------------------------------------------|

Chorus                                                             Repeat x4
e--9------9---9-----x--9----9--9---9\--x--7---7--7--7----10-10--10-10-10/12--|
B--10-----10--10----x--9----9--9---9\--x--7---7--7--7----7--7---7--7---7/-9--|
G--9------9---9-----x--9----9--9---9\--x--7---7--7--7----7--7---7--7---7/-9--|
D--11-----11--11-------9----9--9---9\-----7---7--7--7----7--7---7--7---7/-9--|
A--12-----12--12-------11---11-11-11\----9---9--9--9-------------------------|
E----------------------------------------------------------------------------|

Bridge
e--12-12-12-12--12-12-12-x----------------------|
B--10-10-10-10--10-10-10-x--12--12-12-12--12-x--|
G--9--9--9--9---9--9--9--x--9---9--9--9---9--x--|
D--11-11-11-11--11-11-11-x--9---9--9--9---9--x--|
A--9--9--9--9---9--9--9--x--11--11-11-11--11-x--|
E---------------------------9---9--9--9---9--x--|

                                       Repeat x4  
e-----------------------------------------------|
B--10--10--10-10-10-x--12-12-12-12--12-12-12-x--|
G--7---7---7--7--7--x--9--9--9--9---9--9--9--x--|
D--7---7---7--7--7--x--9--9--9--9---9--9--9--x--|
A--9---9---9--9--9--x--11-11-11-11--11-11-11-x--|
E--7---7---7--7--7--x--9--9--9--9---9--9--9--x--|

Solo
e--5---4---| ------------------------------------------------12-------|
B--7---5---|.--15-15-15-15--15-15-15-15---14--12--10/14--10------12--.|
G--6---4---| -------------------------------------------------9-------|
D--7---6---| --12-12-12-12--12-12-12-12---11---9---7/11---7-------9---|
A----------|.--------------------------------------------------------.|
E----------| ---------------------------------------------------------|

PLEASE RATE THIS TAB                                          Zep8001 
Tap to rate this tab
# A B C D E F G H I J K L M N O P Q R S T U V W X Y Z