Song name
# A B C D E F G H I J K L M N O P Q R S T U V W X Y Z

Athlete - I Love tab

----------------------------------------------------------------------------
			    I Love - Athlete
----------------------------------------------------------------------------
Tuning:Standard

Intro/Verse                                  x 4
e|----4---4---4---7---7------------------------|
B|*--5---5---5---5---5-----2---2---4---5---5--*|
G|--4---4---4---4---4-----2---2---2---2---2----|
D|-----------------------2---2---2---2---2-----|
A|*-------------------------------------------*|
E|---------------------------------------------|

Chorus                                                x 2
e|----4---4---------------------------------------------|
B|*--5---5--------4---4-------2---2---2---2---2---4----*|
G|--4---4--------4---4-------2---2---2---2----2---4-----|
D|----------2---2---2-------2---2---2---2---------------|
A|*---------------------2---------------------0---2----*|
E|------------------------------------------------------|

Verse x 4

Chorus                                                x 3
e|----4---4---------------------------------------------|
B|*--5---5--------4---4-------2---2---2---2---2---4----*|
G|--4---4--------4---4-------2---2---2---2----2---4-----|
D|----------2---2---2-------2---2---2---2---------------|
A|*---------------------2---------------------0---2----*|
E|------------------------------------------------------|

e|---4---4--------------------------------------------|
B|--5---5--------4---4-------2---2~-------------------|
G|-4---4--------4---4-------2---2~--------------------|
D|---------2---2---2-------2---2~---------------------|
A|---------------------2------------------------------|
E|----------------------------------------------------|

Bridge
-i can't get this right, if someone could correct it, would be great-

                             x 2
e|------------------------------|
B|*---5------4------1------2---*|
G|---4------4------2------2-----|
D|--2--------------------2------|
A|---------2------0------------*|
E|*-----------------------------|

e|----------------|
B|----5------4----|
G|---4------4-----|
D|--2-------------|
A|---------2------|
E|----------------|

e|------------------------------------------------------|
B|------------------------------------------------------|
G|--------6------------8------------4------------8p5----|
D|----------7------------9------------6----------7------|
A|----7-------7----9-------9----6-------6----7----------|
E|--5---5--------7---7--------4---4--------5---5--------|


Verse x 2

Outro                                                 x 7
e|----4---4---------------------------------------------|
B|*--5---5--------4---4-------2---2---2---2---2---4----*|
G|--4---4--------4---4-------2---2---2---2----2---4-----|
D|----------2---2---2-------2---2---2---2---------------|
A|*---------------------2---------------------0---2----*|
E|------------------------------------------------------|

e|---4---4-----------------------------------|
B|--5---5--------4---4-------2---2---2---2---|
G|-4---4--------4---4-------2---2---2---2----|
D|---------2---2---2-------2---2---2---2-----|
A|---------------------2---------------------|
E|-------------------------------------------|
                                             x 2
e|----4---4---4---7---7------------------------|
B|*--5---5---5---5---5-----2---2---4---5---5--*|
G|--4---4---4---4---4-----2---2---2---2---2----|
D|-----------------------2---2---2---2---2-----|
A|*-------------------------------------------*|
E|---------------------------------------------|

e|-4~-|
B|-5~-|
G|-4~-|
D|-2~-|
A|----|
E|----|

Tabbed By:igamble
Email    :gg.gamble@hotmail.com
Tap to rate this tab
# A B C D E F G H I J K L M N O P Q R S T U V W X Y Z