Song name
# A B C D E F G H I J K L M N O P Q R S T U V W X Y Z

Athlete - If I Found Out tab

If I Found Out
Athlete
Standard Tuning

Intro is verse riff x1

Verse
   
e|---0-------------------|
B|-1---1-3-0-------------|
G|-----------2-----------|
D|-----------------------|
A|------------------3----|
E|----------------3------|  (x2)

Chorus

Chorus
   F        G        Em       Am
e|-1-1-1-1--3-3-3-3--0-0-0-0--0-0-0-0--|
B|-1-1-1-1--3-3-3-3--0-0-0-0--1-1-1-1--|
G|-2-2-2-2--0-0-0-0--0-0-0-0--2-2-2-2--|
D|-3-3-3-3--0-0-0-0--2-2-2-2--2-2-2-2--|
A|-3-3-3-3--2-2-2-2--2-2-2-2--0-0-0-0--|
E|-1-1-1-1--3-3-3-3--0-0-0-0-----------|
   F        G        Dm       Dm
e|-1-1-1-1--3-3-3-3--1-1-1-1--1-1-1-1--|
B|-1-1-1-1--3-3-3-3--3-3-3-3--3-3-3-3--|
G|-2-2-2-2--0-0-0-0--2-2-2-2--2-2-2-2--|
D|-3-3-3-3--0-0-0-0--0-0-0-0--0-0-0-0--|
A|-3-3-3-3--2-2-2-2--------------------|
E|-1-1-1-1--3-3-3-3--------------------|   (x2)

The next verse may have some chords, i dunno, if it has its probably C and Am.

The outro:
   Dm       Dm       Am       A
e|-1-1-1-1--1-1-1-1--0-0-0-0--0-0-0-0---|
B|-3-3-3-3--3-3-3-3--1-1-1-1--2-2-2-2---|
G|-2-2-2-2--2-2-2-2--2-2-2-2--2-2-2-2---|
D|-0-0-0-0--0-0-0-0--2-2-2-2--2-2-2-2---|
A|-------------------0-0-0-0--0-0-0-0---|
E|--------------------------------------|

You should be able to figure out the order with that. 
so, thats it, leave any comments in the comments box, thanks
Tap to rate this tab
 
# A B C D E F G H I J K L M N O P Q R S T U V W X Y Z