Guitaretab - guitar tabs
Song name
# A B C D E F G H I J K L M N O P Q R S T U V W X Y Z

Athlete - Half Light tab

e-------------------------------------3-3-3-3-3-3-3-3----------------------|
B-6-6-6---5-5-5-5-5---000--111--33---------------------1-1-1---3-3-3---5-5-|
G--------------------------------------------------------------------------|
D--------------------------------------------------------------------------|
A--------------------------------------------------------------------------|
E--------------------------------------------------------------------------|

[ Tab from: http://www.guitaretab.com/a/athlete/57944.html ]
e---------------------7-7-7--8-8-8--10-10-10--15-15-15-15-15-15-15-15------|
B-6-6-6---5-5-5-5-5--------------------------------------------------------|
G--------------------------------------------------------------------------|
D--------------------------------------------------------------------------|
A--------------------------------------------------------------------------|
E--------------------------------------------------------------------------|


e--------------------------------------------------------------------------|
B-15-15-15-15--------------------------------------------------------------|
G--------------------------------------------------------------------------|
D--------------------------------------------------------------------------|
A--------------------------------------------------------------------------|
E--------------------------------------------------------------------------|
Related for Half Light tab
Advertisement will be closed in 10 seconds