Song name
# A B C D E F G H I J K L M N O P Q R S T U V W X Y Z

Athlete - Modern Mafia tab

Help us improve GuitareTab! Take a short survey!
Modern Mafia
Athlete
Tourist (2005)
Tuning: Standard (EADGBe)

Right no one had bothered to tab this and it looked easy enough so i decided to
figure it out myself and put it on. I am sure it is 99% right, there may be a few
errors, but nevermind!

There is no guitar in the verse so u can just sit back for that bit

Chorus
   B5       E5       A5       D5          (x4)
e|---------------------------------------------------------------|
B|---------------------------------------------------------------|
G|----------9-9-9-9-----------7-7-7-7----------------------------|
D|-9-9-9-9--9-9-9-9--7-7-7-7--7-7-7-7----------------------------|
A|-9-9-9-9--7-7-7-7--7-7-7-7--5-5-5-5----------------------------|
E|-7-7-7-7-----------5-5-5-5-------------------------------------|

Bridge
  C5 B5/C5 B5 C5  (x3)  C5 B5 Eb5
e|---------------------------------------------------------------|
B|---------------------------------------------------------------|
G|-5--4/5--4-5-5---------5--4/8----------------------------------|
D|-5--4/5--4-5-5---------5--4/8----------------------------------|
A|-3--2/3--2-3-3---------3--2/6----------------------------------|
E|---------------------------------------------------------------|

You should be able to figure out the order pretty easily form there.
All guitar bits are played with distortion. After the bridge they play
the chorus x2. Any corrections will be appreiciated in the comments section
Thanks
Related for Modern Mafia tab