Song name
# A B C D E F G H I J K L M N O P Q R S T U V W X Y Z

Atif Aslam - Joug tab

Song: Joug 
Artist: Atif aslam
ALbum: meri kahani
tabbed by : Syed Bilal ALi
Age : 19

This Is My First TAb to ultimate-guitar , and its 100% correct , others versions are incorrect

tuning: standard

e|-----------------------------------0-------|
b|---4----4----4----4----4----4-------4-----| 
g|-----4----4----4----4----4----4--------4---| 
d|-------------------------------------------| 
a|--4----4----4----4----4----4----4----------| 
e|-------------------------------------------|

e|-----------------------------------0-------|
b|----4----4----4----4----4----4-------4-----|
g|-----4----4----4----4----4----4--------4---|
d|---6----6----6----6----6----6----6---------|
a|-------------------------------------------|
e|-------------------------------------------|

e|-----------------------------------0-------|
b|----2----2----2----2----2----2-------2-----|
g|-----2----2----2----2----2----2--------2---|
d|---4----4----4----4----4----4----4---------|
a|-------------------------------------------|
e|-------------------------------------------|

e|--------------------------0-----0--0-4-----|
b|----4----4----4----4-------4-----4---------|
g|-----4----4----4----4--------4-------------|
d|---6----6----6----6----6-------------------|
a|-------------------------------------------|
e|-------------------------------------------|


Listen the Song For timing..

email: bilal_stunning@yahoo.com
Tap to rate this tab
# A B C D E F G H I J K L M N O P Q R S T U V W X Y Z