Song name
# A B C D E F G H I J K L M N O P Q R S T U V W X Y Z

Atif Aslam - Pehli Nazar tab

Help us improve GuitareTab! Take a short survey!
Sarang hae yo....(pehli nazar me...) TABBS

Tabbed by Serra.

this is a very sweet song....originally a Korean version...(dubbed in hindi).
check this out for the original Korean version..
http://www.youtube.com/watch?v=pEdgSDzhv-A

well i tried 10 mins to find the tab, n this is hw i ended up. it's the first time i'm 
any tabs in here .... i need sumone to fix , if there's sum bugg in it.

the intro goes like ....

e|--5-----5-----4---------2-2------------------------|
B|--7-----------5---5-5---3-3------------------------|
G|----6-----6-------4-4------------------------------|
D|---------------------------------------------------|
A|---------------------------------------------------|
E|---------------------------------------------------|


E|-----2--4-----|----5----5-----4-----------------------|
B|-----3--5-----|----7----------5---5--5----3-3---------|
G|------------- |-------6---6-------4--4----2-2---------|
D|------------- |---------------------------------------|
A|------------- |---------------------------------------|
E|--------------|---------------------------------------|

the rest is easy i gues....

mail me at serrawces@yahoo.com
Related for Pehli Nazar tab