Song name
# A B C D E F G H I J K L M N O P Q R S T U V W X Y Z

Atif Aslam - Hontoon Say Cho Lo Tum tab

tabbed by: hassan
song: honto say choo lo tum
tunning standard
artist: this is an old gazal from sum movie , but i saw atif aslam singin it sum wht on 
tabs given below. try it out and lemme know..

E||----------------------------|--------------------------------------||
B||-------------------------------------------------------------------||
G||--------0---0----------0----0----------0----0----------0----0------||
D||------2---2---2------2---2----2------0---0----0------2---2----2----||
A||----3------3----3--0-------0----0--2-------2----2--0-------0----0--||
E||----------------------------|--------------------------------------||

hontoon say cho lo tum, mera geet amer ker do.


E||----------------------------|--------------------------------------||
B||-------------------------------------------------------------------||
G||--------0---0----------0----0----------0----0----------0----0------||
D||------2---2---2------2---2----2------0---0----0------2---2----2----||
A||----3------3----3--0-------0----0--2-------2----2--0-------0----0--||
E||----------------------------|--------------------------------------||

ban jaoo meet mery, meri preet amer ker do..


nd rest ov d gazal goes on same as above....
E||----------------------------|--------------------------------------||
B||-------------------------------------------------------------------||
G||--------0---0----------0----0----------0----0----------0----0------||
D||------2---2---2------2---2----2------0---0----0------2---2----2----||
A||----3------3----3--0-------0----0--2-------2----2--0-------0----0--||
E||----------------------------|--------------------------------------||

akaash ka soona pan , mery tanha man main.

E||----------------------------|--------------------------------------||
B||-------------------------------------------------------------------||
G||--------0---0----------0----0----------0----0----------0----0------||
D||------2---2---2------2---2----2------0---0----0------2---2----2----||
A||----3------3----3--0-------0----0--2-------2----2--0-------0----0--||
E||----------------------------|--------------------------------------||

payal chankati tum a jaoo jeevan main.

try it out guyz , nd hope full u will lyk it.
nd dun 4get 2 comment.
Tap to rate this tab
# A B C D E F G H I J K L M N O P Q R S T U V W X Y Z