Song name
# A B C D E F G H I J K L M N O P Q R S T U V W X Y Z

Atif Aslam - Suroor tab

Help us improve GuitareTab! Take a short survey!
I wont claim that my tab is a "100%" correct like every other tone deaf person 
here...you can play and find out for urself if this is correct...have fun.

e|-----------------------------------0-------|
b|---4----4----4----4----4----4--------4-----| 
g|-----4----4----4----4----4----4--------4---| 
d|-------------------------------------------| 
a|--4----4----4----4----4----4----4----------| 
e|-------------------------------------------|

e|-----------------------------------0-------|
b|----4----4----4----4----4----4-------4-----|
g|-----4----4----4----4----4----4--------4---|
d|-------------------------------------------|
a|-------------------------------------------|
e|--4----4----4----4----4----4-----4---------|

e|-----------------------------------0-------|
b|----2----2----2----2----2----2-------2-----|
g|-----2----2----2----2----2----2--------2---|
d|-------------------------------------------|
a|-------------------------------------------|
e|--2----2----2----2----2----2----2----------|

e|--------------------------0-----0---0------|
b|----4----4----4----4--------4-----4---4----|
g|-----4----4----4----4---------4------------|
d|-------------------------------------------|
a|-------------------------------------------|
e|--4----4----4----4----4--------------------|


Just as simple as that...
MAK.
Related for Suroor tab