Song name
# A B C D E F G H I J K L M N O P Q R S T U V W X Y Z

Atif Aslam - Pehli Nazar tab

E-1--6-5-1-3-1--1------------------------------------------------------|
B-----------------4-3-----1-3-4-3-1------------------------------------|
G---------------------3-3-----------3-2-3-2-0--------------------------|
D----------------------------------------------------------------------|
A----------------------------------------------------------------------|
E----------------------------------------------------------------------|
Oh jaane jah duno jaha mere baho me ah bulaja haaaa ha

E-----------------------------------------------------------------------|
B--3-3---1-1------------------------------------------------------------|
G------3------3-2-3-3-3-2-0---------------------------------------------|
D-----------------------------------------------------------------------|
A-----------------------------------------------------------------------|
E-----------------------------------------------------------------------|
Tap to rate this tab
 
# A B C D E F G H I J K L M N O P Q R S T U V W X Y Z