Song name
# A B C D E F G H I J K L M N O P Q R S T U V W X Y Z

Atif Aslam - Mai Ne Maye Ne Mai Kino Ankhan tab

v-vibrato
s-slide
b-bend
h-hammer on

                            Riff 1                                                   Riff 2
e |----------------------------------|----------------------------------------------|
b |----------------------------------|---12v--15v-15-15--17s-17v-17v--17-15-12v-----|
G |---12s--12-11-9-7v--7-7-9s--9-9v-|-----------------------------------------------|
D |----------------------------------|----------------------------------------------|
A |----------------------------------|----------------------------------------------|
E  |----------------------------------|---------------------------------------------|

                           Riff 3                                                    Riff 4
e |-----------------------------------|-------------------------------|
b |------------------12v--15v-14-12v- |---12v-------------------------|
G |---12v-14v-14-14------------------ |------14-12-11-9v-9-11v--------|
D |-----------------------------------|-------------------------------|
A |-----------------------------------|-------------------------------|
E  |-----------------------------------|------------------------------|

                        Riff 1
e |-------------------------------------|
b |-------------------------------------|
G |---12s--12-11-9-7v--7-7-9s--9-9v-----|
D |-------------------------------------|
A |-------------------------------------|
E |-------------------------------------|


|||||Comments|||||||
I learnt the solo by ear and tried to be as precise as possible. I've suggested a way to 
go about in the above tablature but you can definitely do a lot more by experimenting.
Tap to rate this tab
 
# A B C D E F G H I J K L M N O P Q R S T U V W X Y Z