Song name
# A B C D E F G H I J K L M N O P Q R S T U V W X Y Z

Atif Aslam - Aadat tab

Title: Aadat
Singer: Atif Aslam
Music: Jal the band
Album: Aadat

Tabbed by Shakti
Email: shakti_102@yahoo.co.uk

Chords used:
C#m     x46654
C#sus2  x46644
B       x24442  Or 799877
A       x02220  Or 577655
A7M     x02120  Or xx7654
Asus2   x02200

Repeat the following pickings at the intro:

  C#sus2
e|--------------------------------------------|
B|---------4-----4-----4-----4----------------|
G|-----6-----6-----6-----6-----6--------------|
D|---6---6-----6-----6-----6-----6------------|
A|-4------------------------------------------|
E|--------------------------------------------|

  C#m
e|--------------------------------------------|
B|---------5-----5-----5-----5----------------|
G|-----6-----6-----6-----6-----6--------------|
D|---6---6-----6-----6-----6-----6------------|
A|-4------------------------------------------|
E|--------------------------------------------|


Repeat the intro pickings for this part too

Najaane kab se
Umeedain kuch baqi hain
Mujhe phir bhi teri yaad
Kyun ati hai?
Najaane kab se

The strumming after the intro goes between the following chords:

   C#sus2  C#m             A7M
e|-4-------4-------4-------4----|
B|-4-------5-------4-------5----|
G|-6-------6-------6-------6----|
D|-6-------6-------7-------7----|
A|-4-------4--------------------|
E|------------------------------|

After 8 beats of the strumming, the lead do this:

                                          Asus2
e|-------0------------0------------0------0---|
B|-2-0-2---2-0--2-0-2---2-0----0-------0--0---|
G|---------------------------2---2---2----2---|
D|--------------------------------------------|
A|--------------------------------------------|
E|--------------------------------------------|

Verse:

     C#m               B
Durr jitna bhi tum mujhse

       A        B
Paas tere main

      C#m              B          A             B
Ab to aadat si hai mujhko aise jeene main

     C#m       B            A           B
Zindagi se koi shiwva bhi nahi hai

       C#m                B       A             B
Ab tau zinda hun main iss neele asmaan main

Solo:

  C#m                                A7M
e|-------4--4-7----------4--4-7------------4-----5-----4-----|
B|---5----------5----5----------5------2-------2-----2-----2-|
G|-6---6-----------6---6-------------2---2---2-----2-----2---|
D|-----------------------------------------------------------|
A|-----------------------------------------------------------|
E|-----------------------------------------------------------|

The whole song goes the same way as the verse except for the following part:

              C#m
Sabhi raatein hain

              A         B
Sabhi baatein hain

           C#m
Bhula do unhain

           A    B
Mitta do unhain
Tap to rate this tab
 
# A B C D E F G H I J K L M N O P Q R S T U V W X Y Z