Song name
# A B C D E F G H I J K L M N O P Q R S T U V W X Y Z

Atkins Chet - Sugar Bush tab

Sugar Bush
                              by 
                           Chet Atkins
Tune low E to D

 E-------------|--5------------------|--10p7---0-|-5---------------|
 B-7h8---7h8---|------7------7-----7-|-------8---|----7----7----7--|
 G-7h9---7h9---|------7------7-----7-|-----------|----7----7----7--|
 D-------------|------0------0 ----0-|-----------|----0----0----0--|
 A-------------|----------0----------|-----------|-------0---------|
 D-------------|--0--------------0---|-----------|-0----------0----|

 E--10p7----0-|---5-------------------|---------------|----------------|
 B-------8----|-------7------7--------|-------0---0---|-3--------------|
 G------------|-------7------7--------|-----2---2---2-|----2----2----2-|
 D------------|-------0------0--------|--5------------|----4----4----4-|
 A------------|-----------0-------0---|---------------|-------0--------|
 D------------|---0-------------------|---------------|-0---------0----|

 E-----------|----5-----------------|-10p7---0-|--5---------------|-10p7---0-|
 B--7h8--7h8-|--------7-----7-----7-|------8---|-----7-----7----7-|------8---|
 G--7h9--7h9-|--------7-----7-----7-|----------|-----7-----7----7-|----------|
 D-----------|--------0-----0-----0-|----------|-----0-----0----0-|----------|  
 A-----------|-----------0----------|----------|--------0---------|----------|
 D-----------|----0------------0----|----------|--0-----------0---|----------|

 E--5------------|----------------|----------------------|------------|
 B-----7-----7---|--------0---0---|--3-------------------|-------3----|
 G-----7-----7---|------2---2---2-|-----2----2----2----2-|-----2------|
 D-----0-----0---|---5------------|-----4----4----4----4-|-2/4-----0--|
 A--------0----0-|----------------|--------0---------0---|------------|
 D--0------------|----------------|--0----------0--------|-0----------|

 E-----------------------|-----------------------------------|------------|
 B---------------------3-|-------3------------------------3--|-------3----|
 G---------0-----------2-|--1h2----2----------------------2--|-----2------|
 D-------0---0---2/4-----|------------3p2-0---------------0--|-2/4-----0--|
 A--0h2------------------|------------------3-2p0------------|------------|
 D---------------0-------|--0----------------------3h4-0-----|-0----------|

 E-----------------------|-----------------------------|----------------|
 B---------------------3-|------0----1p0-----------0---|-3--------------|
 G---------0-----------2-|----2---2------2-------2---2-|----2----2------|
 D-------0---0---2/4-----|-4----------------4/5--------|----4----4------|
 A--0h2------------------|-----------------------------|-------0--------|
 D---------------0-------|-0---------------------------|-0----------0---|

  Repeat.
Tap to rate this tab
# A B C D E F G H I J K L M N O P Q R S T U V W X Y Z