Song name
# A B C D E F G H I J K L M N O P Q R S T U V W X Y Z

Atlas Genius - Back Seat tab

Back Seat by Atlas Genus
Tabbed by Chase Dun
This is my first tab so don't hate or judge. Strings are right but idk about how 
the dashes work. Listen to the song and you'll get it.

Intro:
e|----------------------------------|----------------------------------|
B|----------------------------------|----------------------------------|
G|----------------------------------|----------------------------------|
D|------------------10--10--8-------|---3--5---8--10--10--10----3/5----|
A|--x8--8-8-8-8-8/1-----------------|----------------------------------|
E|----------------------------------|----------------------------------|

e|----------------------------------|----------------------------------------|
B|----------------------------------|----------------------------------------|
G|----------------------------------|----------------------------------------|          
D|---3--5---8--10--10--10----8------|---3--5---8--10--10--10----12---12------| 
A|----------------------------------|----------------------------------------| 
E|----------------------------------|----------------------------------------|

e|-------------------------------|----------------------------------------|
B|-------------------------------|----------------------------------------|
G|-------------------------------|----------------------------------------|
D|---3--5---8--10--10--10--------|---3--5---8--10--10--10--8--10--12------| 
A|-------------------------------|----------------------------------------|
E|-------------------------------|----------------------------------------|
NOT COMPLETED
Tap to rate this tab
# A B C D E F G H I J K L M N O P Q R S T U V W X Y Z