Song name
# A B C D E F G H I J K L M N O P Q R S T U V W X Y Z

Atlas Genius - If So Acoustic tab

Intro/verse

2X  C             C              Em           Em
E|--------------------------------------------------------|
B|-----------1-------------1-------------0-------------0--|
G|--------0-------------0-------------0-------------0-----|
D|--------------------------------------------------------|
A|-----3-------------3-------------1-------------1--------|
E|--0-------------0-------------0-------------0-----------|

Everybody's taking what they can but they can't decide
They do what they want cause any kind of feeling's alright

2X  F              F           C           C
E|-------------------------------------------------------|
B|-----------1-------------1-----------1-----------1-----|
G|--------2-------------2-----------0-----------0--------|
D|-------------------------------------------------------|
A|-----0-------------0-----------3-----------3-----------|
E|--0-------------0-----------0-----------0--------------|

And don't be talking maybe, your mama's flying high as a kite
You're just like the next one cause we'll be walking lonely tonight
Lonely tonight

(Chorus)
3X  Am                   F     C                     C
E|-----------0-------------0-------------0-----------0--------|
B|-----------1-------------1-------------1-----------1--------|
G|------------------------------------------------------------|
D|--------2-------------3-------------2-----------2-----------|
A|-----0-------------0-------------3-----------3--------------|
E|--0-------------0-------------0-----------0-----------------|

If so,
If so,
We know we'll be coming
If so,
If so,
We know we'll be coming
If so,
If so,
We know we'll be coming



(just repeat for the second verse and other choruses
Tap to rate this tab
# A B C D E F G H I J K L M N O P Q R S T U V W X Y Z