Song name
# A B C D E F G H I J K L M N O P Q R S T U V W X Y Z

Atlas Genius - Trojans tab

-------------------------------------------------------------------------------
                             Trojans - Atlas Genius
-------------------------------------------------------------------------------
Tabbed by: Quinton94
E-mail:

 This is the first tab i've done, I have looked at the other
 tabs on here for this song before and most are for the acoustic
 version, and out of the one electric version i didn't like personally.
 So I've decided to give it a try and tab the electric version myself.
 I beleive this is pretty much right, feel free to comment on anything and
 any errors.
 Hope this helps someone!

Tuning:Standard

Intro\Verse:
e|-----------|-----------|-------------|---------------|
B|-----------|-----------|-------------|---------------|
G|---7---7-7-|---7---7-7-|----7----7-7-|----7----7-7---| x5
D|-----------|-----------|-------------|---------------|
A|-7---7-----|-----------|-10---10-----|---------------|
E|-----------|-8---8-----|-------------|-10---10-------|

Chorus:
e|-4/-7-7-7-7---3--3---7-7-7-7---3-3---7-7-7-7---3-3---7-7-7-7---7-7-7--|
B|-5/-8-8-8-8\--5--5/--8-8-8-8\--5-5/--8-8-8-8\--5-5/--8-8-8-8\--x-x-x--|
G|-4/-7-7-7-7---x--x---7-7-7-7---x-x---7-7-7-7---x-x---7-7-7-7---7-7-7--| x3
D|--------------5--5-------------5-5-------------5-5--------------------|
A|----------------------------------------------------------------------|
E|----------------------------------------------------------------------|


Verse: This is pretty much the chords, kinda hard to do the rythme but if you listen to 
the song you can figure it out.
e|-----------------------------------------------|
B|-8-8-88---------------12-12-1212---------------|
G|-9-9-99--9--9--9-9----12-12-1212---11-11-1111--| x4
D|-9-9-99--10-10-1010---12-12-1212---12-12-1212--|
A|-7-7-77--10-10-1010---10-10-1010---12-12-1212--|
E|---------8--8--8-8-----------------10-10-1010--|


Chorus2:
e|-4/-7-7-7-7---3--3---7-7-7-7---3-3---7-7-7-7---3-3---7-7-7-7---7-7-7--|
B|-5/-8-8-8-8\--5--5/--8-8-8-8\--5-5/--8-8-8-8\--5-5/--8-8-8-8\--x-x-x--|
G|-4/-7-7-7-7---x--x---7-7-7-7---x-x---7-7-7-7---x-x---7-7-7-7---7-7-7--| x2
D|--------------5--5-------------5-5-------------5-5--------------------|
A|----------------------------------------------------------------------|
E|----------------------------------------------------------------------|


Bridge: Again, pretty much the chords you can just listen for the strumming.
e|-0-0-0-000--0-0-000--0--0--0-0-0---0--0--0-0-0---|
B|-0-0-0-000--0-0-000--0--0--0-0-0---0--0--0-0-0---|
G|-7-7-7-777--7-7-777--7--7--7-7-7---7--7--7-7-7---|
D|-x-x-x-xxx--0-0-000--x--x--x-x-x---0--0--0-0-0---| x2
A|-7-7-7-777--x-x-xxx--10-10-101010--x--x--x-x-x---|
E|------------8-8-888----------------10-10-101010--|

Bridge2(continued):
e|-------------------------------------------------------------------------|
B|------I wanted to get this up fast, and im having trouble----------------|
G|----figuring this part out. If I do I will put it in, but----------------|
D|-----if anyone thinks they've figured it out feel free to comment it in.-|
A|------Thanks!------------------------------------------------------------|
E|-------------------------------------------------------------------------|


 Then he goes into another kinda chorus thing before normal chorus.
Do the first part until he says your trojans in my head a second time, just pretty much 
listen to the song to figure out how long.
Second part play two times I beleive.

e|-xxxx>>-|-77777777-88888888-77777777-55555555-------|
B|-8888>>-|-88888888-88888888-88888888-88888888-------|
G|-7777>>-|-77777777-77777777-77777777-77777777-------|
D|-0000>>-|-------------------------------------------|
A|-xxxx>>-|-------------------------------------------|
E|-8888>>-|-------------------------------------------|

Ending
e|-4/-7-7-7-7---3--3---7-7-7-7---3-3---7-7-7-7---3-3---7-7-7-7---7-7-7--|
B|-5/-8-8-8-8\--5--5/--8-8-8-8\--5-5/--8-8-8-8\--5-5/--8-8-8-8\--x-x-x--|
G|-4/-7-7-7-7---x--x---7-7-7-7---x-x---7-7-7-7---x-x---7-7-7-7---7-7-7--| x3
D|--------------5--5-------------5-5-------------5-5--------------------|
A|----------------------------------------------------------------------|
E|----------------------------------------------------------------------|

 ..Take it off take it in take off all the thoughts of what we've been...

************************************

| /   slide up
| \   slide down
| h   hammer-on
| p   pull-off
| ~   vibrato
| +   harmonic
| x   Mute note
| b   Bend
| pb  Pre-bend
| br  Bend release
| pbr Pre-bend release
| brb Bend release bend

************************************
Tap to rate this tab
 
# A B C D E F G H I J K L M N O P Q R S T U V W X Y Z