Song name
# A B C D E F G H I J K L M N O P Q R S T U V W X Y Z

Atlas Genius - Centred On You tab

Wicked song! 99% correct but comment and like if you want.

NOTE: The chorus can be played with barre chords and this --> "(2)" is optional.

Cheers

Artist: Atlas Genius
Song: Centered on You
Album: When It Was Now
Tuning: Standard

Intro

e |----------------------------------------------------------------|
B |----------------------8--10--------810----------11---------10--|
G |-----5-----5---7--10---------7--10------7(x2)---10--(x3)---10--|
D |-3-3---3-3------------------------------------------------------|
A |----------------------------------------------------------------|    
E |----------------------------------------------------------------|

Verse 1

e |---------------------------------------------------|
B |---------8--10--------810----------11---------10--|
G |--7--10---------7--10------7(x2)---10--(x3)---10--|
D |---------------------------------------------------|
A |---------------------------------------------------|         
E |---------------------------------------------------|

A heart drops it's emotion
Towards, "it's not how it's supposed to be"
And it all moves into one

Slow burn the devotion
We took turns, the stars fell over
And it all moves into one

The outcome is pseudo bliss
Turn hours sung, I went in tears
And it all rolled into one

Chorus

e |--5----x----0----x-------|
B |--6----1----1----6-------|
G |--7----2---(2)---7-------|
D |--7----3----2----8-------|
A |--5----3----0----8-------|   
E |--x----x----x----x-------|

Mind lit up
The second for
Centred on you
My concience all lit up
This second for
Centred on you

Interlude
 
e |---------------------------------------------------|
B |---------8--10--------810----------11---------10--|
G |--7--10---------7--10------7(x2)---10--(x3)---10--|
D |---------------------------------------------------|
A |---------------------------------------------------|         
E |---------------------------------------------------|

(She went, "all we are"
She went, "all we are"
She went, "all we are"
She went, "all we are")

A heart drops it's emotion (She went, "all we are")
Towards, it's not how it's supposed to be (She went, "all we are")
And it all moves into one

Chorus

e |--5----x----0----x-------|
B |--6----1----1----6-------|
G |--7----2---(2)---7-------|
D |--7----3----2----8-------|
A |--5----3----0----8-------|   
E |--x----x----x----x-------|


Bridge Lead Riff

e |-----9-9-9-9-9--7-7-7-5--10-10-10-10/---12-12--15-15--15\--|
B |-9---9-9-9-9-9--7-7-7-6--10-10-10-10/---12-12--15-15--15\--|
G |-----------------------------------------------------------|
D |-----------------------------------------------------------|
A |-----------------------------------------------------------|         
E |-----------------------------------------------------------|

e |-----9-9-9-9-9--7-7-9-5--10-10-10-10/---12-12--15-15--12\--|
B |-----9-9-9-9-9--7-7-9-6--10-10-10-10/---12-12--15-15--12\--|
G |-----------------------------------------------------------|
D |-----------------------------------------------------------|
A |-----------------------------------------------------------|         
E |-----------------------------------------------------------|

e |-----9-9-9-9-9--7-7-9-5--10-10-10-10/---12-12--15-15--12\--|
B |-----9-9-9-9-9--7-7-9-6--10-10-10-10/---12-12--15-15--12\--|
G |-----------------------------------------------------------|
D |-----------------------------------------------------------|
A |-----------------------------------------------------------|         
E |-----------------------------------------------------------|

e |-----9-9-9-9-9--7-7-9-5--10-10-10-10/---12-12--15-15--12\--|
B |-----9-9-9-9-9--7-7-9-6--10-10-10-10/---12-12--15-15--12\--|
G |-----------------------------------------------------------|
D |-----------------------------------------------------------|
A |-----------------------------------------------------------|         
E |-----------------------------------------------------------|

Chorus
Tap to rate this tab
# A B C D E F G H I J K L M N O P Q R S T U V W X Y Z