Song name
# A B C D E F G H I J K L M N O P Q R S T U V W X Y Z

Atlas Sound - Winter Vacation tab

http://en.wikipedia.org/wiki/Bradford_Cox

-------------------------------------------------------------------------------
			     Winter Vacation - Atlas Sound
-------------------------------------------------------------------------------
Tabbed by: Cale
Email: cale.weir@gmail.com

Tuning: Standard

Loop this part.

e|-+12------------|
B|----+12---------|
G|-------+12------|
D|----------------|
A|----------------|
E|----------------|


e|-------------0-------------------------------------------------------------|
B|--5--/--7----0-------------------------------------------------------------|
G|--5--/--7----4-------------------------------------------------------------|
D|--5--/--7----5-------------------------------------------------------------|
A|--3--/--5----5-------------------------------------------------------------|
E|--3--/--5----3-------------------------------------------------------------|

Every second time play this:

e|-0--/--0-------------------------------------------------------------------|
B|-0--/--0-------------------------------------------------------------------|
G|-2--/--4-------------------------------------------------------------------|
D|-3--/--5-------------------------------------------------------------------|
A|-3--/--5-------------------------------------------------------------------|
E|-1--/--3-------------------------------------------------------------------|


| /  slide up
| +  harmonic
===============================================================================
Tap to rate this tab
# A B C D E F G H I J K L M N O P Q R S T U V W X Y Z