Song name
# A B C D E F G H I J K L M N O P Q R S T U V W X Y Z

Atlas Sound - Recent Bedroom tab

Atlas Sound - Recent Bedroom


Instrument: Guitar
Tuning: eBGDAE

Tabbed By: tallicafan888


This song has the same chords repeated over and over again, apart from the odd riff.
So it's pretty easy. Also it's quite hard to hear what's being played so tell me if you 
I got something wrong.


Guitar 1

Main Riff

e||---------------------------------------------------|
B||--------5-----------7-----------5-----------5------|
G||------7---7-------9---9-------7---7-------7---7----|
D||----7-------7---9-------9---7-------7---7-------7--|
A||--5-----------7-----------5-----------5------------|
E||---------------------------------------------------|


Riff 1 (At about 00:39 seconds)

e||---------------------------12----|
B||--------5------------------------|
G||------7---7-------7-----14-------|
D||----7-------7---7----14----------|
A||--5-----------5------------------|
E||---------------------------------|


Riff 2 (At about 00:49 seconds)

e||----------------------------------|
B||--------5-----------5-------------|
G||------7---7-------7---7---7/------|
D||----7-------7---7-------7---------|
A||--5-----------5-------------------|
E||----------------------------------|


Riff 3 (Played a few times after song enters what you could call the chorus)

e||-------------------------------|
B||--------5------5-----5---------|
G||------7---7------7-----7-------|
D||----7-------7------7-----7-----|
A||--5----------------------------|
E||-------------------------------|


Guitar 2

Main Riff

e||---------------------------------------------------------------------------|
B||-----------15----------------17----------------15----------------15--------|
G||--------14----14----------16----16----------14----14----------14----14-----|
D||-----16----------16----18----------18----16----------16----16----------16--|
A||--17----------------19----------------17----------------17-----------------|
E||---------------------------------------------------------------------------|


Guitar 2 changes quite alot as you get into the chorus but theres so many effects it's 
to hear what's being played.
Just follow what I tabbed and mess around with the notes in that area.


Hope this is alright, let me know if there are any problems. Cheers!
Tap to rate this tab
# A B C D E F G H I J K L M N O P Q R S T U V W X Y Z