Song name
# A B C D E F G H I J K L M N O P Q R S T U V W X Y Z

Atmosphere - Me tab

-------------------------------------------------------------------------------
			     Me - Atmosphere
-------------------------------------------------------------------------------
Tabbed by: Marlon
Email: soadmlo@yahoo.com

Tuning: Standard

 0:00 - 0:12
e|---------------------------------------------------------------------------|
B|-0-0-0-0-0-0-0-0-0-0-0-0-0-0-0-0-------------------------------------------|
G|---------------------------------------------------------------------------|
D|---------------------------------------------------------------------------|
A|---------------------------------------------------------------------------|
E|---------------------------------------------------------------------------|

 0:13 - 2:54
e|---------------------------------------------------------------------------|
B|-8-8-8-8-8-7-7--7-7-7-7-7--5-5---------------------------------------------|
G|---------------------------------------------------------------------------|
D|---------------------------------------------------------------------------|
A|---------------------------------------------------------------------------|
E|---------------------------------------------------------------------------|

 2:55 - 3:05
e|---------------------------------------------------------------------------|
B|-1-1--1-1--0-0-0-3-1-0-0-0-3-----------------------------------------------|
G|---------------------------------------------------------------------------|
D|---------------------------------------------------------------------------|
A|---------------------------------------------------------------------------|
E|---------------------------------------------------------------------------|

 3:06 - 3:27
e|---------------------------------------------------------------------------|
B|-8-8-8-8-8-7-7--7-7-7-7-7--5-5---------------------------------------------|
G|---------------------------------------------------------------------------|
D|---------------------------------------------------------------------------|
A|---------------------------------------------------------------------------|
E|---------------------------------------------------------------------------|

===============================================================
Tap to rate this tab
 
# A B C D E F G H I J K L M N O P Q R S T U V W X Y Z