Song name
# A B C D E F G H I J K L M N O P Q R S T U V W X Y Z

Atmosphere - Woman With The Tattooed Hands tab

-------------------------------------------------------------------------------
Woman With The Tattooed Hands - Atmosphere
-------------------------------------------------------------------------------

Tabbed by: Brett
Email: jckthpt826@yahoo.com

Tuning: Standard (EADGBe)

Intro
e|---x--x--x-x-x-x-x-6-6-6-6-6-6-6-6-6-6-6-6-6-6-6-6--|
B|---x--x--x-x-x-x-x-6-6-6-6-6-6-6-6-6-6-6-6-6-6-6-6--|
G|---x--x--x-x-x-x-x-7-7-7-7-7-7-7-7-7-7-7-7-7-7-7-7--|
D|---x--x--x-x-x-x-x-8-8-8-8-8-8-8-8-8-8-8-8-8-8-8-8--|
A|---x--x--x-x-x-x-x-8-8-8-8-8-8-8-8-8-8-8-8-8-8-8-8--|
E|---x--x--x-x-x-x-x-6-6-6-6-6-6-6-6-6-6-6-6-6-6-6-6--|

Verse/Chorus
e|---4--4--4-4-4--x--x-x-x--x--5--5-5-5---5--x--x--x-7-7-7-7---7-7--|
B|---5--5--5-5-5--x--x-x-x--x--5--5-5-5---5--9--9--9-7-7-7-7---7-7--|
G|---6--6--6-6-6--9--9-9-11-13-6--6-6-6h7p6--9--9--9-8-8-8-8h9p8-8--|
D|---6--6--6-6-6--9--9-9-11-13-7--7-7-7---7--9--9--9-9-9-9-7---9-9--|
A|---4--4--4-4-4--7--7-7-9--11-7--7-7-7---7--5--5--5-9-9-9-9---9-9--|
E|---4--4--4-4-4--0--0-0-0--0--5--5-5-5---5--0--0--0-7-7-7-7---7-7--|


| /  slide up
| \  slide down
| h  hammer-on
| p  pull-off
| ~  vibrato
| +  harmonic
| x  Mute note
===============================================================================
Tap to rate this tab
 
# A B C D E F G H I J K L M N O P Q R S T U V W X Y Z