Song name
# A B C D E F G H I J K L M N O P Q R S T U V W X Y Z

Atmosphere - Keep Steppin tab

no one really knows this song but if you do please rate it
,any problems with this tab just contact me at: 
mikethecracker@hotmail.com

e|-------------------------------------------------------------|
b|-10-10-10---8-9-11-12--10-10-10---11-11-11-12-11-12-11--10-10|
G|-------------------------------------------------------------|
D|-------------------------------------------------------------|
A|-------------------------------------------------------------|
E|-------------------------------------------------------------|x5

e|-----------------------------|
B|8-9-8---------------9-11-10~~|
G|---------------8-9-8-----10~~|
D|----------8-9-8--------------|
A|-----8-9-8-------------------|
E|-----------------------------|

e|-------------------------------------------------------------|
B|-10-10-10---8-9-11-12--10-10-10---11-11-11-12-11-12-11--10-10|
G|-------------------------------------------------------------|
D|-------------------------------------------------------------|
A|-------------------------------------------------------------|
E|-------------------------------------------------------------|x5

e|------------------------------|
B|8-9-8----------------9-11-10~~|
G|----------------8-9-8-----10~~|
D|----------8-9-8---------------|
A|-----8-9-8--------------------|
E|------------------------------|

e|------------------------------------------------------------|
B|-10-10-10---8-9-11-12--10-10-10---11-11-11-12-11-12-11-10-10|
G|------------------------------------------------------------|
D|------------------------------------------------------------|
A|------------------------------------------------------------|
E|------------------------------------------------------------|

e|------------------------------------------------------------|
B|-10-10-10---8-9-11-12--10-10-10---11-11-11-12-11-12-11------|
G|------------------------------------------------------------|
D|------------------------------------------------------------|
A|------------------------------------------------------------|
E|------------------------------------------------------------|

e|---------|
B|-10-10-10|
G|---------|
D|---------|
A|---------|
E|---------|

e|------------------------------------------------------------|
B|-10-10-10---8-9-11-12--10-10-10---11-11-11-12-11-12-11-10-10|
G|------------------------------------------------------------|
D|------------------------------------------------------------|
A|------------------------------------------------------------|
E|------------------------------------------------------------|x5

e|-------------------------------------------------------|
B|-10-10-10---8-9-11-12--10-10-10---11-11-11-12-11-12-11-|
G|-------------------------------------------------------|
D|-------------------------------------------------------|
A|-------------------------------------------------------|
E|-------------------------------------------------------|

e|---------|
B|-10-10-10|
G|---------|
D|---------|
A|---------|
E|---------| 
Tap to rate this tab
 
# A B C D E F G H I J K L M N O P Q R S T U V W X Y Z