Atmosphere - The Last To Say tab

-------------------------------------------------------------------------------
			    The Last To Say - Atmosphere
-------------------------------------------------------------------------------
Tabbed by:Skiddy82
Email:skiddy82@yahoo.com

Tuning:STANDARD

e|------------------------------------------------------------------------------|
B|-10---9--10---7---2---6---7---------------------------------------------------|
G|------------------------------------------------------------------------------|
D|------------------------------------------------------------------------------|
A|-9----7---9---5---0---4---5------X2-------------------------------------------|
E|------------------------------------------------------------------------------|

e|-----------------------------------------------------------------------------|
B|-10--12---14---9---10--7---2---6---7-----------------------------------------|
G|-----------------------------------------------------------------------------|
D|-----------------------------------------------------------------------------|
A|-9---11---12---7---9---5---0---4---5-----------------------------------------|
E|-----------------------------------------------------------------------------|
This is a new song by atmosphere off his album "The Family Sign" and there were no tabs 
on it yet so i thought i'd post one. this is pretty much the whole song. ENJOY!

************************************

| /   slide up
| \   slide down
| h   hammer-on
| p   pull-off
| ~   vibrato
| +   harmonic
| x   Mute note
| b   Bend
| pb  Pre-bend
| br  Bend release
| pbr Pre-bend release
| brb Bend release bend

************************************
Tap to rate this tab
 
# A B C D E F G H I J K L M N O P Q R S T U V W X Y Z