Song name
# A B C D E F G H I J K L M N O P Q R S T U V W X Y Z

Atmosphere - Yesterday tab

-------------------------------------------------------------------------------
                             Yesterday - by Atmosphere
-------------------------------------------------------------------------------
Tuning: Standard

Never done a tab before...sorry if it's horrible :P

e|----4/5-3-0---------------------------1--1----1~----------0--0----0~------------|
B|------------3-1-----------------------1--1----1~----------1--1----1~------------|
G|----------------2~--1/2-0------0h2-5-2--2----2~----0h2---2--2----0~---0h2-5-----|
D|--------------------------2-0~------------------------------------2~------------|
A|--------------------------------------------------------------------------------|
E|--------------------------------------------------------------------------------|

Just get the timing good and repeat over and over!

************************************

| /   slide up
| \   slide down
| h   hammer-on
| p   pull-off
| ~   vibrato
| +   harmonic
| x   Mute note
| b   Bend
| pb  Pre-bend
| br  Bend release
| pbr Pre-bend release
| brb Bend release bend

************************************
Tap to rate this tab
# A B C D E F G H I J K L M N O P Q R S T U V W X Y Z