Song name
# A B C D E F G H I J K L M N O P Q R S T U V W X Y Z

Atmosphere - To All My Friends tab

This is just repeated through the majority of the song
e|--------------------------------------------------------------------------|
B|---------------------8h10p8-----------10h13p10----------------------------|
G|---5-2-3-3-3p2---7-7--------7-----9------------9-----10---10--------------|
D|-3-------------5--------------5/7---7------------7/8----8----8------------|
A|--------------------------------------------------------------------------|
E|--------------------------------------------------------------------------|

Every few times through there is an additional part at the end:
e|-----------------9-9-9-9-9-9p8p6------------------------------------------|
B|--------------------------------------------------------------------------|
G|---10--10---10------------------------------------------------------------|
D|-8---8----8----8----------------------------------------------------------|
A|--------------------------------------------------------------------------|
E|--------------------------------------------------------------------------|
Tap to rate this tab
# A B C D E F G H I J K L M N O P Q R S T U V W X Y Z