Song name
# A B C D E F G H I J K L M N O P Q R S T U V W X Y Z

Atmosphere - To All My Friends tab

Created by Evan Crocker
Evan_Crocker@hotmail.com




This is played through entire song
    F
e|--------------------------3h5p3---------------5h8p5-----------------------|
B|-----1-------------------------3-3-----------------5-5--------------------|
G|------2-2h3-3p2-------7-----------0-------9------------------10---10------|
D|--3--------------3/5---5--------------5/7--7-----------7-7/8---8----8-----|
A|--------------------------------------------------------------------------|
E|--------------------------------------------------------------------------|

Then after every few times this is added

e|----------------9-9-9-9-9-9p8p6-------------------------------------------|
B|-------11-----------------------------------------------------------------|
G|---10----10---------------------------------------------------------------|
D|-8---8-----8-8------------------------------------------------------------|
A|--------------------------------------------------------------------------|
E|--------------------------------------------------------------------------|
Tap to rate this tab
# A B C D E F G H I J K L M N O P Q R S T U V W X Y Z