Song name
# A B C D E F G H I J K L M N O P Q R S T U V W X Y Z

Atmosphere - God Loves Ugly tab

Pretty simple song. All the tabs I saw didn't really get it right and knowing
there wasn't a decent tab was kinda disappointing so here it is.


Basic Piano Riff

e------------------3-----3------|
B-------8----7----3-----3-------|
G------6----5----3-----3--------|
D-----8----7--------------------|
A----6----5---------------------|
E---------------3-----3---------|


Piano riff transcribed for guitar

e---6~----5~------3~---3--3~---3------|
B-------8-----7-------3-------3-------|
G------6-----5------3-------3---------|
D-----8-----7-------------------------|
A---6~----5~--------------------------|
E-----------------3~------3~----------|

And there it is. "God Loves Ugly" by Atmosphere.
Tap to rate this tab
# A B C D E F G H I J K L M N O P Q R S T U V W X Y Z