Song name
# A B C D E F G H I J K L M N O P Q R S T U V W X Y Z

Atmosphere - Trying To Find A Balance tab

Standard Tuning but you need to drop High E to a D

D|----------------0--------------------------0--------|
B|--------3----3------3-------------3----3------3-----|
G|-----2----2------2-------------2----2------2--------|
D|--0-------------------------------------------------|
A|----------------------------------------------------|
E|------------------------------3---------------------|

D|---------------0----------------------------------------------|
B|-----3----3------3------------------3------------3-------3----|
G|--2----2------2------------------2------------2---------------|
D|-------------------------------------------------0---------3--|
A|-------------------------------------------------0---------3--|
E|--------------------------------------------------------------|
Tap to rate this tab
 
# A B C D E F G H I J K L M N O P Q R S T U V W X Y Z