Atom And His Package - Upside Down From Here tab

This is the repeating synth part. You can play it in any position, i just play it here.

part 1:                        part 2:
------------------------------|--------------------------------|
---5-5--5------5-7--5---------|---5-5--5-------------5---------|
-----------7-----------7--5---|-----------7--5-7--7-----7------|(5)<- play the
------------------------------|--------------------------------| last time
------------------------------|--------------------------------|
------------------------------|--------------------------------|

There is some variation in this, but this is how i play it. fiddle around with it. notes:
ee e d ef e d c
ee e d cd d e d (c)<- Only on the end

solo:
---------------------------------------|
--17---------------17------------------|
------17-------17------17---19----17---|
----------15---------------------------|
---------------------------------------|
---------------------------------------|

e c f  c e c d  c
Tap to rate this tab
 
# A B C D E F G H I J K L M N O P Q R S T U V W X Y Z