Song name
# A B C D E F G H I J K L M N O P Q R S T U V W X Y Z

Atomic Bitchwax - So Come On tab

Artist: The Atmic Bitchwax
Song: So come on
Album: Boxriff

tabbed by me
Standard tuning

Intro
-----------------------------------------------------------------------------|
-----------------------------------------------------------------------------|
-----------------------------------------------------------------------------|
------------5-3--------------------------------------------------------------|
----------------5-4-3-------------------------3-4-5--------------------------|
1-2-3--1-2-3----------5--1-2-3--1-2-3--3-4-5---------------------------------|

-------------------------------------------------------------------------------|
-------------------------------------------------------------------------------|
--------------------------7-5---5----------------------------------------------|
------------5-3---------------7---7-6-5s3---3----------------------------------|
----------------5-4-3---------------------5---5-3-5----------------------------|
1-2-3--1-2-3-----------5-------------------------------------------------------|

Verse
-----------------------------------------------------------------------------|
-----------------------------------------------------------------------------|
-----------------------------------------------------------------------------|
-----------------------------------------------------------------------------|
3h5-x-8p5-x-3h5-x-5-x-8p5-x-3h5-x-----x--------------------------------------|
----x-----x-----x---x-----x-----x-1h3-x-3h5----------------------------------|

Chorus - D
-----------------------------------------------------------------------------|
--------------- 2-2-------------2-2------------------------------------------|
7-7-7---3-3-x-x-1-1-x-x-3-3-x-x-1-1-x-3--2-2-2---7-7-7-----------------------|
7-7-7---3-3-x-x-3-3-x-x-3-3-x-x-3-3-x-3--2-2-2---7-7-7-----------------------|
5-5-5---1-1-x-x-1-1-x-x-1-1-x-x-1-1-x-1--0-0-0---5-5-5---8-----7-------------|
-------------------------------------------------------6---6-5---5-----------|

(solo)
-----------------------------------------------------------------------------|
-----------------------------------------------------------------------------|
-9---5-----------5-7---------------------------------------------------------|
-9---5---7---9---5-7---------------------------------------------------------|
-7---3---7---9---3-5---------------------------------------------------------|
---------5---7---------------------------------------------------------------|

-----------------------------------------------------------------------------|
-----------------------------------------------------------------------------|
-----------------------------------------------------------------------------|
-----5----5-7b-7--5--------1----1-3b-3--1------------------------------------|
-5h7----7-----------7--1h3----3-----------3------3---3-5b-5--3---------------|
---------------------------------------------3h5---5-----------5-------------|

-----------------------------------------------------------------------------|
-----------------------------------------------------------------------------|
-----------------------------------------------------------------------------|
---------------------------1----1-----3----3---------------------------------|
-----5----5-7b-7--5----1h3----3---3s5----5---7-------------------------------|
-5h7----7-----------7--------------------------------------------------------|

Chorus - E

Intro/Ending
Tap to rate this tab
# A B C D E F G H I J K L M N O P Q R S T U V W X Y Z