Song name
# A B C D E F G H I J K L M N O P Q R S T U V W X Y Z

Atomic Kitten - Eternal Flame tab

Verse 1

Close your eyes, give me your hand, darling.
|-----------0--------------------------------|
|0-1-3---3-3---3-----0-----------------------|
|---------------0-2--------------------------|
|--------------------------------------------|
|--------------------------------------------|
|--------------------------------------------|


do you feel my heart beating? Do you understand? Do you feel the same?

|---------------0---0--------------------7-7-------|
|0-3-8-8-8-8-8--------3-------0-----8-8-7----------|
|-----------------------0-2------------------------|
|--------------------------------------------------|
|--------------------------------------------------|
|--------------------------------------------------|

or am i only dreaming?
|0--2-3-0-5------------------------------------|
|------------3---------------------------------|
|---------------0-2----------------------------|
|----------------------------------------------|
|----------------------------------------------|
|----------------------------------------------|

is this burning an eternal flame?
|-----------------3-----------------------------|
|3-3-3-3-3---8-7-----3--------------------------|
|-----------------------------------------------|
|-----------------------------------------------|
|-----------------------------------------------|
|-----------------------------------------------|

i believe, its meant to be darling
|-----------0--------------------------------|
|0-1-3---3-3---3-----0-----------------------|
|---------------0-2--------------------------|
|--------------------------------------------|
|--------------------------------------------|
|--------------------------------------------|


i watch you when you are sleeping, you belong to me, do you feel the same?
|---------------0---0--------------------7-7-------|
|0-3-8-8-8-8-8--------3-------0-----8-8-7----------|
|-----------------------0-2------------------------|
|--------------------------------------------------|
|--------------------------------------------------|
|--------------------------------------------------|

or am i only dreaming, or is this.....
|0--2-3-0-5-------8--7--------------------------|
|------------3-3--------------------------------|
|-----------------------------------------------|
|-----------------------------------------------|
|-----------------------------------------------|
|-----------------------------------------------|


not finished..only part
Tap to rate this tab
# A B C D E F G H I J K L M N O P Q R S T U V W X Y Z